Oops, an error
Loading. Please wait.

Someone Else Before Bass Tab

version 1
version 1

Whole song

393 views 1 this week
1 commentread comment
1 2 3 4 5
1 last vote to show rating
add to favorites
launch autoscroll
font size
0
reset
guitar tuner
Autoscroll
slow
fast
+/-
esc
set tempo
stop
Help us to improve Ultimate-Guitar.com Take our survey!
×
Author
Difficulty
novice
this is how my friend told me how to play this song and it sounds pretty good to me so
is the intro and some of the other parts but i still dont know the phone call part...


Tuning:  standard

Intro
--------------------------------------------------|
--------------------------------------------------|
-4-4-4-------1-1-1-----1-3-4-4-4-3-3-3-1-1-1------|
-------4-4-4-------2-4-----------------------2----|  (x1)
verse
--------------------------------|
--------------------------------|
-4-4---------1-3-4-4-----1-1----|
-----4-4-2-2---------4-4-----2--|  (x2)
bridge
--------------------------------------|
--------8---4-3-1---------------------|
-4---6------------4--6----------------|
------------------------6--2--6-6-4---|  (x1)
1st Chorus
(she said we were in love...)
-------------------------------------------------|
-------------------------------------------------|
-4-4-----1-1-----4-4-3-3-1-1---------------------|
-----4-4-----2-2-------------2-------------------|
2nd Chours
(she still thinks its my fault...)
----------------------------------------------------|
----------------------------------------------------|
-4-4-4-------1-1-1-----1-3-4-4-4-3-3-3-1-1-1--------|
-------4-4-4-------2-4-----------------------2------|
Post Chorus
--------------------------------|
--------------------------------|
-4-4-----1-1-----4-4-3-3-1-1----|
-----4-4-----2-2-------------2--|
thats all i know of the song. there is little more but the chorus is the same. the only
part is that the last verse is a little diferent and the phone call part.
Suggest correction
Give kudos to tab author, rate the tab!
1 2 3 4 5
comments
print report bad tab
1 comment total.
0 reply
HawkBassNelson 91 Apr 30, 2010 05:45 PM

pretty good; on mine i just made a few corrections and got the phone call part

guest
You may want to rate the tab now too:
select rating
Wanna post a correction for this tab? Suggest correction