Oops, an error
Loading. Please wait.

Someone Else Before Bass Tab

version 2
version 2

Whole song

119 views 1 this week
no commentswrite comment
1 2 3 4 5
please rate
add to favorites
launch autoscroll
font size
0
reset
guitar tuner
Autoscroll
slow
fast
+/-
esc
set tempo
stop
Help us to improve Ultimate-Guitar.com Take our survey!
×
Author
Song:  Someone Else Before
Band:  Hawk Nelson

Intro
---------------------------------------------|
---------------------------------------------|
-4-4-4-------1-1-1-----1-3-4-4-4-3-3-3-1-1---|
-------4-4-4-------2-4---------------------2-|

Verse 1
------------------------------------|
------------------------------------|
-4-4---------1-3-4-4-----1-1--------|
-----4-4-2-2---------4-4-----2-(0)--|    x 2

Bridge 1
------------------------------------|
--------8---4-3-1-------------------|
-4---6------------4--6--------------|
------------------------6--2--6-6-4-|

1st Chorus
-------------------------------|
-------------------------------|
-4-4-----1-1-----4-4-3-3-1-1---|
-----4-4-----2-2-------------2-|

2nd Chorus
--------------------------------------------------|
--------------------------------------------------|
-4-4-4-------1-1-1-----1-3-4-4-4-3-3-3-1-1-1-(0)--|
-------4-4-4-------2-4--------------------------2-|

Post Chorus
-------------------------------|
-------------------------------|
-4-4-----1-1-----4-4-3-3-1-1---|
-----4-4-----2-2-------------2-|

Verse 2 is the same notes as verse 1 and is played twice.  This verse is longer
and the extended part is as follows:

------------------------------------------------|
------------------------------------------------|
-4-4-4-------------1-3-4-4-4--------1-1-1-3-3-3-|
-------4-4-4-2-2-2-----------4-4-4--------------|

Prechorus 2
-------------------------------------------------------------|
-------------------------------------------------------------|
-3-3-3-6-6-6-6-1-1-1-1--------4-4-4-6-6-6-6--1-3-4-6---------|
------------------------2-1-0------------------------2-2-2-2-|

Bass drops out for 1st half of chorus, then plays chorus 2

Phone Call Bridge
-----------------------------------------------------------|
-----------------------------------------------------------|
-4------4-4-4-4--------~4~4-------~4---------------0-0-0---|
---1--2----------1--2-------1--2-----1-1-1-1-2-2-2-------4-|

Chorus 2

Last Chorus
-----------------------------------------------------|
-----6-6-6-6-8-8-8-8-------11-11-11-10-10-10-8-8-8---|
-4-4-----------------9-9-9-------------------------9-|
-----------------------------------------------------|

End
------------------------------------------------|
------------------------------------------------|
-4-4-4-------1-1-----4-4-4-------1-1--------3-4-|
-------4-4-4-----2-2-------4-4-4------2-1-2-----|
Suggest correction
What's this?
You can suggest a correction to this tab. Community and Mods will review your correction and vote to approve or reject it.
comments
We did not receive enough feedback on this tab! Please rate:
print report bad tab
1 2 3 4 5
guest
You may want to rate the tab now too:
select rating
Please do not post tabs as comments. Select "correction" instead!