Oops, an error
Loading. Please wait.

Something On My Mind Bass Tab

742 views 1 this week
3 commentsread comments
1 2 3 4 5
2 more votes to show rating
add to favorites
launch autoscroll
font size
0
reset
guitar tuner
Autoscroll
slow
fast
+/-
esc
set tempo
stop
Help us to improve Ultimate-Guitar.com Take our survey!
×
Author
-------------------------------------------------------------------------------
		      Something On My Mind - Hawk Nelson     
-------------------------------------------------------------------------------

Tuning: Standard

Verse
G|--------------------------------------------------------------------------------------|
D|-------------2--2--2--2--3--3--3--3--------------------2--2--2--2--3--3--3--3--5~--6~-|
A|-3--3--3--5-------------------------7~-----3--3--3--5---------------------------------|
E|--------------------------------------------------------------------------------------|

Pre-Chorus
G|-----------------------------------|
D|--7~-----7-7--------------------1~-|
A|--------------5~-----5-5--2--3-----|
E|-----------------------------------|

Chorus
G|------------------------------------------------------------------------------|
D|-------------------------------------------------------------------3--3--3--3-|
A|-3--3--3--3----------------------------------3--3--3--3-----------------------|
E|------------5--5--5--5-1--1--1--1-3--3--3--3------------5--5--5--5------------|

G|------------------------------------------------------------------------------|
D|------------------------------------------------------------------------------|
A|-5--5--5--5-3--3--3--3----------------------------------3--3--3--3------------|
E|-----------------------5--5--5--5-1--1--1--1-3--3--3--3------------5--5--5--5-|

G|---------------------------------------------|
D|----------------------------------------0-2~-|
A|-3--3--3--3-5--5--5--5-3--3--3--3--3--3------|
E|---------------------------------------------|

Verse
G|--------------------------------------------------------------------------------------|
D|-------------2--2--2--2--3--3--3--3--------------------2--2--2--20--3--3--3--3-5~--6~-|
A|-3--3--3--5-------------------------7~-----3--3--3--5---------------------------------|
E|--------------------------------------------------------------------------------------|

Pre-Chorus
G|------------------------------------------|
D|--7~-----7-7-6-5/12~----12-12----------1~-|
A|--------------------------------2--3------|
E|------------------------------------------|

Chorus
G|--------------------------------------------------------------------------------|
D|-------------------------------------------------------------------3/4/5/777777-|
A|-3--3--3--3----------------------------------3--3--3--3-------------------------|
E|------------5--5--5--5-1--1--1--1-3--3--3--3------------5--5--5--5--------------|

G|-------------------------------------------------------------------|
D|-------------------------------------------------------------------|
A|-3--3--3--3----------------------------------3--3--3--3------------|
E|------------5--5--5--5-1--1--1--1-3--3--3--3------------5--5--5--5-|

G|------------------------------------------------------------------------------|
D|-------------------------------------------------------------------3--3--3--3-|
A|-3--3--3--3----------------------------------3--3--3--3-----------------------|
E|------------5--5--5--5-1--1--1--1-3--3--3--3------------5--5--5--5------------|

G|------------------------------------------------------------------------------|
D|------------------------------------------------------------------------------|
A|-5--5--5--5-3--3--3--3----------------------------------3--3--3--3------------|
E|-----------------------5--5--5--5-1--1--1--1-3--3--3--3------------5--5--5--5-|

G|---------------------------------------------|
D|----------------------------------------0-2~-|
A|-3--3--3--3-5--5--5--5-3--3--3--3--3--3------|
E|---------------------------------------------|

Bass Solo/Bridge
G|-------------------------------------------------------------------------|
D|----------------02---------------320----------------02-------------------|
A|--33-33-33-33--3---33-33-33-33--3-----33-33-33-33--3---33-33-33--x-3-----|
E|---------------------------------------------------------------------3~--|x2

G|----------------------|
D|----------------------|
A|-x-3-----x-3-------3~-|
E|-----3~------3~-------|

Last Chorus/Guitar Solo  ~  WHOLE THING x3  ~
G|------------------------------------------------------------------------------|
D|-------------------------------------------------------------------3--3--3--3-|
A|-3--3--3--3----------------------------------3--3--3--3-----------------------|
E|------------5--5--5--5-1--1--1--1-3--3--3--3------------5--5--5--5------------|

G|------------------------------------------------------------------------------|
D|------------------------------------------------------------------------------|
A|-5--5--5--5-3--3--3--3----------------------------------3--3--3--3------------|
E|-----------------------5--5--5--5-1--1--1--1-3--3--3--3------------5--5--5--5-|

G|-----------------------|
D|-----------------------|
A|-3--3--3--3-5--5--5--5-|
E|-----------------------|

Outro
G|------------------------------------------------|
D|---------------02----------------3~--2~--0~-----|
A|-33-33-33-33--3---33-33-33-33-3--------------3~-|
E|------------------------------------------------|



| /  slide up
| \  slide down
| h  hammer-on
| p  pull-off
| ~  let note ring
| +  harmonic
| x  Mute note
===============================================================================


Suggest correction
Give kudos to tab author, rate the tab!
1 2 3 4 5
comments
print report bad tab
3 comments total.
0 reply
HawkBassNelson 91 Apr 06, 2010 09:58 PM

sorry, but this isnt a very good tab. the first part is too high. the parts you got right were the outro and bass solo

0 reply
alexSl8ck 10 Jun 30, 2010 01:05 PM

Hey ! Will post another bass tab for this song on the site ? Thanks. Alex

0 reply
alexSl8ck 10 Jun 30, 2010 01:07 PM

Hey ! Will you post another bass tab for this song on the site ? Thanks. Alex

ps: sorry for the little mistake :s

guest
You may want to rate the tab now too:
select rating
Wanna post a correction for this tab? Suggest correction