Oops, an error
Loading. Please wait.

Turn It On Bass Tab

version 1
version 1

Whole song

Interactive

504 views 1 this week
1 commentread comment
1 2 3 4 5
please rate
add to favorites
launch autoscroll
font size
0
reset
guitar tuner
Autoscroll
slow
fast
+/-
esc
set tempo
stop
Help us to improve Ultimate-Guitar.com Take our survey!
×
Author
-------------------------------------------------------------------------------
			Turn It On - Hawk Nelson 
-------------------------------------------------------------------------------

Tuning: Standard

Intro
G|--------| |---------------------------------|
D|--------| |---------------------------------| x2
A|--------| |-------------7-6-----------7676--|
E|--7575--| |--5-7-7--5777----5-7-7-5777------|

Verse
G|------------------------|
D|------------------------| x3
A|--22222222---44444444---|
E|----------2----------4--|

G|----------------------------|
D|----------------------------|
A|--22222222---44444444-------|
E|----------2----------4/12\--|

Chorus
G|---------------------------------------------------|
D|---------------------------------------------------| x2
A|--222222222222------------222222222222-------------|
E|--------------222222222222-------------2-2----4-4--|

Post-Chorus
G|---------------------------------|
D|---------------------------------| x2
A|-------------7-6-----------7676--|
E|--5-7-7--5777----5-7-7-5777------|

Verse
G|------------------------|
D|------------------------| x3
A|--22222222---44444444---|
E|----------2----------4--|

G|-----------------------------|
D|-----------------------------|
A|--22222222---44444444--------|
E|----------2----------2~---2~-|

Chorus
G|---------------------------------------------------|
D|---------------------------------------------------| x2
A|--222222222222------------222222222222-------------|
E|--------------222222222222-------------2-2----4-4--|

Post-Chorus
G|---------------------------------|
D|---------------------------------| x2
A|-------------7-6-----------7676--|
E|--5-7-7--5777----5-7-7-5777------|

Bridge
G|----------------------------------------------------------|
D|----------------------------------------------------------|
A|--2222222222222222----------------------------------------|
E|------------------2222222222222222444444444444-2-2---2-2--|

Chorus
G|---------------------------------------------------|
D|---------------------------------------------------| x2
A|--222222222222------------222222222222-------------|
E|--------------222222222222-------------2-2----4-4--|

Post-Chorus
G|---------------------------------|
D|---------------------------------| x2
A|-------------7-6-----------7676--|
E|--5-7-7--5777----5-7-7-5777------|




| /  slide up
| \  slide down
| h  hammer-on
| p  pull-off
| ~  let note ring
| +  harmonic
| x  Mute note
===============================================================================

Suggest correction
Give kudos to tab author, rate the tab!
1 2 3 4 5
comments
print report bad tab
1 comment total.
0 reply
HawkBassNelson 91 wrote on July 8 2010, 06:50 pm

overall good tab, the verse is off though

guest
You may want to rate the tab now too:
select rating
Wanna post a correction for this tab? Suggest correction