Oops, an error
Loading. Please wait.

Zero Bass Tab

version 1
version 1

Whole song

Interactive

1,839 views 1 this week
no commentswrite comment
1 2 3 4 5
please rate
add to favorites
launch autoscroll
font size
0
reset
guitar tuner
Autoscroll
slow
fast
+/-
esc
set tempo
stop
Help us to improve Ultimate-Guitar.com Take our survey!
×
Difficulty
novice
This song really really rocks. its super powerful and is fun for the bassist. I love the 
solo too. okey dokey.

No bass in the intro and verse.

Pre- Chorus: (PALM MUTED)
WHEN I HEAR YOUR NAME....
G---------------------------------------------------------------------------------|
D---------------------------------------------------------------------------------|
A-----------------------------------------3333-3333-3333-3333---------------------|
E-5555-5555-5555-5555-3333-3333-3333-3333--------------------3333-3333-3333-3333--|

CHORUS:
STAY ON THE BEAT AND FOLLOW THE BASS DRUM
IF WE STARTED AT ZERO AND WENT DIFFERENT WAYS....
G--------------------------------|
D--------------------------------|
A-33-33h5p3----------------------|
E----------33-33-11-11h3p1-33-33-| x2

INTROx1

VERSE 2:
G--------------------------------|
D-5h7p5--------------------------|
A------33-33---------------------|
E------------33-33-11-11-33-33---|
x2
NOTE!!!!!!
ON " HE WAS SUCH A GOOD DESCRIPTION..."
AFTER FAVORD FUTURE MAN, THROW IN:
D---5/7\5~~~---|

PRE-CHORUS

CHORUS

PRE-CHORUS

INTERLUDE:
Pre-chorus x2

CHORUS:
ON "WASTING AWAY, WASTING AWAY..." JUST KEEP DOING THE CHORUS BUT PALM MUTED. YOU'LL 
IT AND KNOW WHAT TO DO.

END:
NO BASS. =(EXCEPT FOR LAST BUT UNUSUAL CHORD
A--3~~~|

I HOPE YOU LIKED IT. I TRIED TO HEAR IT BEST I COULD.
LOVE THE SONG.

THIS WAS MY 1ST TAB!!!
comments
We did not receive enough feedback on this tab! Please rate:
print report bad tab
1 2 3 4 5
I want to post or [tab]
guest
You may want to rate the tab now too:
select rating
Please do not post tabs as comments. Select "correction" instead!