Oops, an error
Loading. Please wait.

Angels With Even Filthier Soul tab

2,582 views 3 this week
3 commentsread comments
1 2 3 4 5
x 8
add to favorites
×
Save as Personal and add changes to this tab that will be seen only by you. Learn more ›
×
You can save this tab as Personal to edit and correct it or add notes. All changes will be seen only by you. Learn more »
launch autoscroll
font size
0
reset
how to read this tab
guitar tuner
edit
Autoscroll
slow
fast
+/-
esc
set tempo
stop
Author
Difficulty
Hey I noticed that there was no tab for this song and i was messing around one day and
figuried the whole thing out. But bare with me because this is my first time writing a
tab. TABED BY: Jordan Glockler for Acoustic

Regular Tuning...and you will have to figure out the strumming
---------------Intro-----------------

e|------0-----0-----0---------------|
b|------1-----0-----0---------------|
g|------2-----1-----2---------------|
d|------2-----2-----3---------------|
a|------0-----2-----3---------------|
E|----------------------------------|

e|------0-----0-----0-------3-------|
b|------1-1h3-0-1h3-0---------------|
g|------2-----1-----2---------------|
d|------2-----2-----3---------------|
a|------0-----2-----3---------------|
E|----------------------------------|

e|------0-----0-----0-------3-------|
b|------1-1h3-0-1h0-0---------------|
g|------2-----1-----2---------------|
d|------2-----2-----3---------------|
a|------0-----2-----3---------------|
E|----------------------------------|

-------------verse-------------------
Palm
e|----------------------------------|
b|------1xxxxx0xxxxx0xxxxx0---------|
g|------2xxxxx1xxxxx2xxxxx0---------|  x4
d|------2xxxxx2xxxxx3xxxxx0---------|
a|------0xxxxx2xxxxx3xxxxx0---------|
E|------0xxxxx0xxxxx0xxxxx0---------|

e|------00----00----00--0000--------|
b|------11----00----00--0000--------|
g|------22----11----22--2222--------|  x4
d|------22----22----33--3333--------|
a|------00----22----33--3333--------|
E|----------------------------------|

e|--------------------------------------------|
b|--------------------------------------------|
g|----5-5-5-5--7-7-7-7------------------------|  x2
d|----5-5-5-5--7-7-7-7---33xx33xx33xx33xx-----|
a|----3-3-3-3--5-5-5-5---33xx33xx33xx33xx-----|
E|----3-3-3-3--5-5-5-5---11xx11xx11xx11xx-----|

e|----------------------------|
b|----------------------------|
g|----------------------------|
d|------77/5/7--333--555------|  x8
a|------77/5/7--333--555------|
E|------55/3/5--111--333------|

And Just Need to Repeat it all over again



            
            
Suggest correction
Creating personal tab
Creating personal tab
You can edit any tab online and save it as your Personal.

You can edit, replace or remove any tab part or add personal notes – all changes will be seen only by you.

Personal tabs can be accessed anytime from any device, even offline.
Learn more »
comments
print report bad tab
3 comments total.
0 reply
CerealboxXer 10 Nov 17, 2005 11:07 AM

the intro is like this.. but otherwise, good tab!

e|------0-----0-----0---------------|
b|------1-----0-----0---------------|
g|------2-----1-----2---------------|
d|------2-----2-----3---------------|
a|------0-----2-----3---------------|
E|----------------------------------|

e|------0-------0-------0-------3-------|
b|------1-1h3p1-0-1h3p1-0---------------|
g|------2-------1-------2---------------|
d|------2-------2-------3---------------|
a|------0-------2-------3---------------|
E|--------------------------------------|

e|------0-------0-----0-------3---------|
b|------1-1h3p1-0-1p0-0-----------------|
g|------2-------1-----2-----------------|
d|------2-------2-----3-----------------| x2
a|------0-------2-----3-----------------|
E|--------------------------------------|

0 reply
CerealboxXer 10 Nov 18, 2005 01:47 PM

oh and the last part of your tab goes like this:

e|--------------------------------|
b|--------------------------------|
g|--------------------------------|
d|------77-5/7-xxxx-333--555------| x8
a|------77-5/7-xxxx-333--555------|
E|------55-3/5-xxxx-111--333------|

0 reply
uiop21 349 Sep 21, 2007 09:59 PM

Wheres the lead?

guest
You may want to rate the tab now too:
select rating
Wanna post a correction for this tab? Suggest correction