Oops, an error
Loading. Please wait.

Blue Burns Orange intro tab

version 1
version 1

Intro

Whole song

2,000 views 3 this week
3 commentsread comments
1 2 3 4 5
x 3
add to favorites
×
Save as Personal and add changes to this tab that will be seen only by you. Learn more ›
×
You can save this tab as Personal to edit and correct it or add notes. All changes will be seen only by you. Learn more »
launch autoscroll
font size
0
reset
how to read this tab
guitar tuner
edit
Autoscroll
slow
fast
+/-
esc
set tempo
stop
Author
Difficulty
this is the first 44 seconds..i didn't have time to finish it but i will soon

ruthm guitar
e|------------------|
b|------------------|
g|------------------|
d|------------------|4x
a|-9---101010101010-|
e|-7---8-8-8-8-8-8--|

lead guitar
e|-------------------|
b|-------------------|
g|-----5-----5-4-3-4-|
d|-------------------|
a|-7--5--7--5--------|
e|-------------------|

rythm and lead together
e|-----------------|       |------------------|
b|-----------------|       |------------------|
g|-----------------|       |------------------|
d|-----------------|5x plus|------------------|
a|9---101010101010-|       |-9---10101010/810-|
e|7---8-8-8-8-8-8--|       |-7---8-8-8-8/6-8--|  00:35

e|---------------------|
b|---------------------|
g|---------------------|
d|-6-8-7--6-7-8--6-7-8-|
a|---------------------|
e|---------------------|00:44


            
            
Suggest correction
Creating personal tab
Creating personal tab
You can edit any tab online and save it as your Personal.

You can edit, replace or remove any tab part or add personal notes – all changes will be seen only by you.

Personal tabs can be accessed anytime from any device, even offline.
Learn more »
Give kudos to tab author, rate the tab!
1 2 3 4 5
comments
print report bad tab
3 comments total.
0 reply
FedEx_Man 1,467 Dec 25, 2005 01:49 PM

no where close

0 reply
Mikey-H 35 Jun 01, 2006 03:32 AM

soz dude but ur tab is compleetly off aye....

+1 reply
ror 172 May 05, 2007 04:45 PM

e|------------------|
b|-2--2-2-2-2-2-----|
g|-4--4-4-4-4-4-----|
d|-4--4-4-4-4-4-----|
a|------------------|
e|------------------|
* * * * *

e|------------------|
b|-3--3-3-3-3-3-----|
g|-4--4-4-4-4-4-----|
d|-4--4-4-4-4-4-----|
a|------------------|
e|------------------|
* * * * *

guest
You may want to rate the tab now too:
select rating
Wanna post a correction for this tab? Suggest correction