Oops, an error
Loading. Please wait.

Blue Burns Orange tab

version 2
version 2

Whole song

5,351 views 6 this week
2 commentsread comments
1 2 3 4 5
x 5
add to favorites
×
Save as Personal and add changes to this tab that will be seen only by you. Learn more ›
×
You can save this tab as Personal to edit and correct it or add notes. All changes will be seen only by you. Learn more »
launch autoscroll
font size
0
reset
how to read this tab
guitar tuner
edit
Autoscroll
slow
fast
+/-
esc
set tempo
stop
Author
Difficulty
i been meaning to tab this song for SOO long.  I didn't lable some parts of the song
right so i hope you dont get confused.  well, here it is.

Email: ChrisisFUNKY98@AOL.com
Tabbed by:Chris
tuning:Standard eBGDAE

Example:
e|---------------------------------------|
B|---------------------------------------|
G|---------------------------------------|
D|---------------------------------------|
A|---------------------------------------|
E|---------------------------------------|


intro: (clean) x2
e|------------------------|
B|------------------------|
G|-6--------7-------------|
D|-9--------9-------------|
A|-9-999999-9-999999------|
E|------------------------|
     ......   ......


Pre-verse: guitar 1
e|----------------------------------|
B|----------------------------------|
G|----------------------------------|
D|-5555555555555555-777777777777777-|
A|-5555555555555555-777777777777777-|
E|-3333333333333333-555555555555555-|

pre-verse: guitar 2
e|--------7----------------|
B|-7-5--0------7-5---------|
G|------------------77767~-|
D|------------------99989~-|
A|-------------------------|
E|-------------------------|

Verse 1: guitar 1:x2
e|-----------------------------------------------------------------|
B|-----------------------------------------------------------------|
G|-----------------------------------------------------------------|
D|-999999999999999-777777777777777-555555555555555-777777777777777-|
A|-999999999999999-777777777777777-555555555555555-777777777777777-|
E|-777777777777777-555555555555555-333333333333333-555555555555555-|
    ..............  ..............  ..............  ..............


Pre-chorus: piano
e|---------------------------------------------|
B|---------------------------------------------|
G|---------9------------9-----------9----------|
D|-------7---7--------7---7-------7---7--------|
A|---------------------------------------------|
E|-777-5--------333-5-------777-5--------3~-5~-|

Pre-chorus: guitar 1
e|-------------------------------------------------|
B|-------------------------------------------------|
G|-------------------------------------------------|
D|--------------------------------5555555-77777777-|
A|--------------------------------5555555-77777777-|
E|--------------------------------3333333-55555555-|
                                  ....... ........

Chorus: guitar 1
e|-----------------------------------------------------------|
B|-----------------------------------------------------------|
G|-----------------------------------------------------------|
D|-xxxx-5555555-7777777-9-7-9-xxx-9-7-9-5555555-777777-9-7-5-|
A|-xxxx-5555555-7777777-9-7-9-xxx-9-7-9-5555555-777777-9-7-5-|
E|-xxxx-3333333-5555555-7-5-7-xxx-7-5-7-3333333-555555-7-5-3-|

chorus: guitar 2 x2
e|-----------------7~-|
B|-----------------7~-|
G|-11--9~--777--4~----|
D|-12-11~--999--4~----|
A|--------------------|
E|--------------------|

Verse 2: guitar 1 x2
e|------------------------------------------|
B|------------------------------------------|
G|------------------------------------------|
D|-9-9999999999-77-9-999999999-77-5--7--5/7-|
A|-9-9999999999-77-9-999999999-77-5--7--5/7-|
E|-7-7777777777-55-7-777777777-55-3~-5~-3/5-|
     ..........      .........

play pre-chorus
play chorus x4 for guitar 2 but for 1 its different. it goes like this:

           x2
e|-----------------------------------------------------------------|
B|-----------------------------------------------------------------|
G|-----------------------------------------------------------------|
D|-xxxx-5555555-7777777-9-7-9-xxx-9-7-9-5555555-777777-9-xxx-9-xxx-|
A|-xxxx-5555555-7777777-9-7-9-xxx-9-7-9-5555555-777777-9-xxx-9-xxx-|
E|-xxxx-3333333-5555555-7-5-7-xxx-7-5-7-3333333-555555-7-xxx-7-xxx-|

2nd time ending:
e|--------|
B|--------|
G|--------|
D|-9-7-5~-|
A|-9-7-5~-|
E|-7-5-3~-|

breakdown part 1: guitar 1:
e|----------------------|
B|----------------------|
G|----------------------|
D|-9----7----5----2---4-|
A|-9----7----5----2---4-|
E|-7----5----3----0---2-|


Breakdown part 2: guitar 1 tremblo picking is used:
e|---------------------------------------|
B|---------------------------------------|
G|-4444444-666666666-777777777777--------|
D|---------------------------------------|
A|---------------------------------------|
E|---------------------------------------|


breakdown part 2: guitar 1 tremblo picking is used
e|---------------------------------------|
B|---------------------------------------|
G|---------------------------------------|
D|-44444444444444444444444444444444------|
A|---------------------------------------|
E|---------------------------------------|

Breakdown part 2: guitar 3:
e|------|
B|------|
G|------|
D|-2--4-|
A|-2--4-|
E|-0--2-|

interlude part 1: guitar 1 x2:
e|-----------------------------------------------------------|
B|-----------------------------------------------------------|
G|-----------------------------------------------------------|
D|-9999999999-77-9999999999-77-5555555555-77-5555555555-77---|
A|-9999999999-77-9999999999-77-5555555555-77-5555555555-77---|
E|-7777777777-55-7777777777-55-3333333333-55-3333333333-55---|

interlude part 2: guitar 1 x2
e|-------------------|
B|-------------------|
G|-------------------|
D|-999-7777-555-7777-|
A|-999-7777-555-7777-|
E|-777-5555-333-5555-|

2nd time ending:
e|--------------------------------|
B|--------------------------------|
G|--------------------------------|
D|-555555555555555-77777777777777-|
A|-555555555555555-77777777777777-|
E|-333333333333333-55555555555555-|
    ..............  .............

interlude part 3: guitar 1 x2:
e|--------------------|
B|--------------------|
G|--------------------|
D|-5555-7777-99999999-|
A|-5555-7777-99999999-|
E|-3333-5555-77777777-|


play chorus for guitar 2 twice and for guitar 1 like the first chorus.

THATS IT!  hope you like it! :)
Suggest correction
Creating personal tab
Creating personal tab
You can edit any tab online and save it as your Personal.

You can edit, replace or remove any tab part or add personal notes – all changes will be seen only by you.

Personal tabs can be accessed anytime from any device, even offline.
Learn more »
comments
print report bad tab
2 comments total.
0 reply
CSI freak 1992 10 Mar 06, 2008 03:47 PM

it was an excelent tab and i really enjoyed and it matched up w/ the song almost perfectly great job hey keep tabbing

+1 reply
Jacob6293 281 Oct 10, 2009 07:13 AM

the pre-verse should be:

e|-------9-7----------------|
B|-7-5---------7-5----------|
G|-------------------77767~-|
D|-------------------99989~-|
A|--------------------------|
E|--------------------------|

instead of:

e|--------7----------------|
B|-7-5--0------7-5---------|
G|------------------77767~-|
D|------------------99989~-|
A|-------------------------|
E|-------------------------|

other than that it was an excellent tab nice job! 5*

guest
You may want to rate the tab now too:
select rating
Wanna post a correction for this tab? Suggest correction