Oops, an error
Loading. Please wait.

Dead In The Water tab

version 2
version 2

Whole song

Interactive

1,325 views 1 this week
5 commentsread comments
1 2 3 4 5
x 5
add to favorites
×
Save as Personal and add changes to this tab that will be seen only by you. Learn more ›
×
You can save this tab as Personal to edit and correct it or add notes. All changes will be seen only by you. Learn more »
launch autoscroll
font size
0
reset
how to read this tab
guitar tuner
edit
Autoscroll
slow
fast
+/-
esc
set tempo
stop
Author
Difficulty
Artist: Hawthorne Heights
Song:Dead In The Water
This band is really good and pretty easy to play. I am 99.9% sure that this is right.
I'm not positive on the chorus with the lead guitar or the bridge but I'm going to
figure it out. If you like this tab then rate it. By the way this is my first tab
and I'm only 12. Oh and I can't tell if this is drop d or not. If so tell me in
the comments. I play it standard and it sounds fine.
-------------------------------------------------------------------------------
Intro
Lead Guitar
 )  Repeat 3x     )     Do Once     )   Repeat 3x      )   Do  Once
E)----------------)-----------------)------------------)-----------------)
B)----------------)-----------------)------------------)-----------------)
G)-10---9----7-7--)--10---9----12-12)--14---12----10-10)--14---12---15-15)
D)-x 4x-x 4x-x-x--)--x 4x-x 4x-x--x-)--x 4x-x 4x--x--x-)--x 4x-x 4x-x--x-)
A)-8----7----5-5--)--8----7----10-10)--12---10----8--8-)--12---10---13-13)
e)----------------)-----------------)------------------)-----------------)

Verse
Lead Guitar
 )Repeat 4x)Repeat 8x)
E)---------)---------)
B)---6-----)---6---6-)
G)--5-7----)--5-7---7)
D)---------)---------)
A)---------)---------)
e)---------)---------)

Prechorus
Lead Guitar
 )Repeat 4x     )
E)--5-5-5-8--88-)
B)---6-6-6-6--66)
G)--------------)
D)--------------)
A)--------------)
e)--------------)

            
            
Suggest correction
Creating personal tab
Creating personal tab
You can edit any tab online and save it as your Personal.

You can edit, replace or remove any tab part or add personal notes – all changes will be seen only by you.

Personal tabs can be accessed anytime from any device, even offline.
Learn more »
comments
print report bad tab
5 comments total. Showing first comments.
0 reply
pez12 31 Mar 10, 2006 09:59 AM

cmon ppl u need to vote or talk or something

0 reply
70times7 10 Mar 18, 2006 07:49 PM

this song is in drop D.

0 reply
a7x_rocker_a7x 10 Mar 19, 2006 12:41 PM

very first note:
e|--|
B|--|
G|--|
D|0-|
A|0-|
D|0-|

not
e|---|
B|---|
G|10-|
D|x--|
A|8--|
D|---|

peace

guest
You may want to rate the tab now too:
select rating
Wanna post a correction for this tab? Suggest correction