Oops, an error
Loading. Please wait.

Dead In The Water Tab

version 3
version 3

Whole song

Interactive

6,434 views 1 this week
11 commentsread comments
1 2 3 4 5
x 11
add to favorites
launch autoscroll
font size
0
reset
how to read this tab
guitar tuner
Autoscroll
slow
fast
+/-
esc
set tempo
stop
Help us to improve Ultimate-Guitar.com Take our survey!
×
Author
Tuning
D A D G B E
Song by Hawthorne Heights
Titled:Dead in The Water
Album:If Only You Were Lonely
Tunning:Drop D


Im sure that this song is 99% right,also please rate

 Key:
*=Palm Mute
=Slide up
/=Slide down
H=Hammer
P=Pull Off
~=Let it ring

Riff 1 Guitar1&2

e|-------------------------------------------------------------|
B|-------------------------------------------------------------|
G|------10-10-10-10—-9-9-9-9—-7--------10-10-10-10—-9-9-9-9--7-|
D|0-0-0—-x—-x—-x—-x--x-x-x-x—-x—-0-0-0—-x—-x—-x—-x—-x-x-x-x--x-|
A|0-0-0—-8—-8—-8—-8—-7-7-7-7—-5—-0-0-0—-8—-8—-8—-8--7-7-7-7--5-|
D|0-0-0--------------------------0-0-0-------------------------|
  *

e|----------------------------------------------------------------|
B|----------------------------------------------------------------|
G|--------10-10-10-10—-9-9-9-9—-7---------10-10-10-10—-9-9-9-9-12-|
D|--0-3-3—-x—-x—-x—-x—-x-x-x-x—-x—-0-8-8---x—-x—-x—-x—-x-x-x-x--x-|
A|--0-3-3—-8—-8—-8—-8—-7-7-7-7—-5—-0-8-8---8—-8—-8—-8—-7-7-7-7-10-|
D|--0-3-3--------------------------0-8-8--------------------------|
    *                              *

Riff 2 Guitar 1

e|---------------------------------------------------------|
B|---------------------------------------------------------|
G|----------14—14-14-14—12-12-12-12-10---------14-14-14-14-|
D|10-12-12---x--x—-x—-x--x—-x—-x—-x—-x—-0-0-0---x—-x—-x—-x-|
A|10-12-12—-12—12—12-12—10-10-10-10—-8—-0-0-0—-12-12-12-12-|
D|10-12-12------------------------------0-0-0--------------|
                                        *

e|----------------------------------------------------------|
B|----------------------------------------------------------|
G|12-12-12-12--10--------14-14-14-14-12-12-12-12—-10--------|
D|-x—-x—-x—-x---x—-0-3-3—-x—-x—-x—-x—-x—-x—-x—-x---x—-0-8-8-|
A|10-10-10-10---8—-0-3-3-12-12-12-12-14-14-14-14---8—-0-8-8-|
D|-----------------0-3-3------------------------------0-8-8-|
                   *                                  *
e|--------------------------------|
B|--------------------------------|
G|14-14-14-14-12-12-12-12—-15-----|
D|-x—-x—-x—-x—-x—-x—-x—-x---x—-10-|
A|12-12-12-12-10-10-10-10—-13—-10-|
D|-----------------------------10-|


Riff 2 Guitar 2


e|-------------------------------------------------------------|
B|-------------------------------------------------------------|
G|------10-10-10-10—-9-9-9-9—-7--------10-10-10-10—-9-9-9-9--7-|
D|0-0-0—-x—-x—-x—-x--x-x-x-x—-x—-0-0-0—-x—-x—-x—-x—-x-x-x-x--x-|
A|0-0-0—-8—-8—-8—-8—-7-7-7-7—-5—-0-0-0—-8—-8—-8—-8--7-7-7-7--5-|
D|0-0-0--------------------------0-0-0-------------------------|
  *

e|----------------------------------------------------------------|
B|----------------------------------------------------------------|
G|--------10-10-10-10—-9-9-9-9—-7---------10-10-10-10—-9-9-9-9-12-|
D|--0-3-3—-x—-x—-x—-x—-x-x-x-x—-x—-0-8-8---x—-x—-x—-x—-x-x-x-x--x-|
A|--0-3-3—-8—-8—-8—-8—-7-7-7-7—-5—-0-8-8---8—-8—-8—-8—-7-7-7-7-10-|
D|--0-3-3--------------------------0-8-8--------------------------|
    *                              *

Riff 3 Guitar1


e|-----------------------------------|
B|-----------------------------------|
G|-----------------------------------|
D|0-0-0—-0-0-0—-0-0-0--0-0-0---------|
A|0-0-0—-0-0-0—-0-0-0--0-0-0---------|
D|0-0-0—-0-0-0—-0-0-0—-0-0-0--15-----|
  * * *  * * *  * * *  * * *


Riff 3 Guitar2


e|--1-------1-------1-------1---|
B|1---3---1---3---1---3---1---3-|
G|------------------------------|
D|------------------------------|
A|------------------------------|
D|------------------------------|

Riff 4 Guitar1


e|---------------------------------------|
B|---------------------------------------|
G|---------------------------------------|
D|0-------10-------8-------5------7------|  X2
A|0-(X16)-10-(X16)-8-(X16)-5-(X8)-7-(X4)-|
D|0-------10-------8-------5------7------|
  *        *       *       *      *


Riff 4 Guitar2


e|--1-------1-------------|
B|1---3---1---3-----------|
G|------------------------|  X8
D|------------------------|
A|------------------------|
D|------------------------|

Then guitar2 plays

e|-5-5---8-8----5-5---8-8----5-5---8-8----5-5---8-8-------|
B|6-6-6-6-6-6—-6-6-6-6-6-6—-6-6-6-6-6-6--6-6-6—6-6--------|
G|--------------------------------------------------------|
D|--------------------------------------------------00-00-|
A|--------------------------------------------------00-00-|
D|--------------------------------------------------00-00-|
                                                    ** **

Riff 5 Guitar1

e|--------------------------------------------------------|
B|--------------------------------------------------------|
G|--------------------------------------------------------|
D|0-0-0-0-0-0-0-0-3-3-3-3-3-3-3-3-8-8-8-8-8-8-8-8-5-5-5-5-|
A|0-0-0-0-0-0-0-0-3-3-3-3-3-3-3-3-8-8-8-8-8-8-8-8—5-5-5-5-|
D|0-0-0-0-0-0-0-0-3-3-3-3-3-3-3-3-8-8-8-8-8-8-8-8-5-5-5-5-|


e|--------------------------------------------------------|
B|--------------------------------------------------------|
G|--------------------------------------------------------|
D|7-7-7-7-0-0-0-0-0-0-0-0-3-3-3-3-3-3-3-3-8-8-8-8-8-8-8-8-|
A|7-7-7-7-0-0-0-0-0-0-0-0-3-3-3-3-3-3-3-3-8-8-8-8-8-8-8-8-|
D|7-7-7-7-0-0-0-0-0-0-0-0-3-3-3-3-3-3-3-3-8-8-8-8-8-8-8-8-|

e|---------------------|
B|---------------------|
G|---------------------|
D|5—-5—-5—-5—-5--10-10-|
A|5—-5—-5—-5--5—-10-10-|
D|5—-5—-5—-5—-5—-10-10-|


Riff 5 Guitar2


e|--------------------------------------------------------|
B|--------------------------------------------------------|
G|10-10—-9--7—-5—/7—-10-10—-9--7—-5—-10-10—-9--7—-5—-7-7--|
D|-x—-x—-x--x—-x—-x---x—-x—-x--x—-x---x—-x—-x--x—-x—-x-x--|
A|-8—-8—-7--5--3—/5---8—-8—-7--5—-3---8—-8—-7--5—-3—-5-5--|
D|--------------------------------------------------------|

e|---------------|
B|---------------|
G|10-10-—9—-7—-5-|   X2
D|-x—-x—-x—-x—-x-|
A|-8—-8—-7—-5—-3-|
D|---------------|


Riff 6 Guitar1


e|----------------------|
B|----------------------|
G|----------------------|
D|0-0-0—-0-0-0—---------|
A|0-0-0—-0-0-0—---------|
D|0-0-0—-0-0-0—--15-----|
  * * *  * * *


Riff 6 Guitar2


e|--1-------1---------|
B|1---3---1---3-------|
G|--------------------|
D|--------------------|
A|--------------------|
D|--------------------|


Riff 7 Guitar1


e|---------------------------------------|
B|---------------------------------------|
G|---------------------------------------|
D|0-------10-------8-------5------7------|  X2
A|0-(X16)-10-(X16)-8-(X16)-5-(X8)-7-(X4)-|
D|0-------10-------8-------5------7------|
  *        *       *       *      *


Riff 8 Guitar2


e|--1-------1-------------|
B|1---3---1---3-----------|
G|------------------------|  X8
D|------------------------|
A|------------------------|
D|------------------------|


Then guitar 2 plays

e|-5-5---8-8----5-5---8-8----5-5---8-8----5-5---8-8-------|
B|6-6-6-6-6-6—-6-6-6-6-6-6—-6-6-6-6-6-6--6-6-6—6-6--------|
G|--------------------------------------------------------|
D|--------------------------------------------------00-00-|
A|--------------------------------------------------00-00-|
D|--------------------------------------------------00-00-|
                                                    ** **

Riff 9 Guitar1

e|--------------------------------------------------------|
B|--------------------------------------------------------|
G|--------------------------------------------------------|
D|0-0-0-0-0-0-0-0-3-3-3-3-3-3-3-3-8-8-8-8-8-8-8-8-5-5-5-5-|
A|0-0-0-0-0-0-0-0-3-3-3-3-3-3-3-3-8-8-8-8-8-8-8-8—5-5-5-5-|
D|0-0-0-0-0-0-0-0-3-3-3-3-3-3-3-3-8-8-8-8-8-8-8-8-5-5-5-5-|

e|--------------------------------------------------------|
B|--------------------------------------------------------|
G|--------------------------------------------------------|
D|7-7-7-7-0-0-0-0-0-0-0-0-3-3-3-3-3-3-3-3-8-8-8-8-8-8-8-8-|
A|7-7-7-7-0-0-0-0-0-0-0-0-3-3-3-3-3-3-3-3-8-8-8-8-8-8-8-8-|
D|7-7-7-7-0-0-0-0-0-0-0-0-3-3-3-3-3-3-3-3-8-8-8-8-8-8-8-8-|


e|---------------------|
B|---------------------|
G|---------------------|
D|5—-5—-5—-5—-5--10-10-|
A|5—-5—-5—-5--5—-10-10-|
D|5—-5—-5—-5—-5—-10-10-|


Riff 9 Guitar2


e|--------------------------------------------------------|
B|--------------------------------------------------------|
G|10-10—-9--7—-5—/7—-10-10—-9--7—-5—-10-10—-9--7—-5—-7-7--|
D|-x—-x—-x--x—-x—-x---x—-x—-x--x—-x---x—-x—-x--x—-x—-x-x--|
A|-8—-8—-7--5--3—/5---8—-8—-7--5—-3---8—-8—-7--5—-3—-5-5--|
D|--------------------------------------------------------|

e|---------------|
B|---------------|
G|10-10-—9—-7—-5-|
D|-x—-x—-x—-x—-x-|   X2
A|-8—-8—-7—-5—-3-|
D|---------------|

Riff 10 Guitar1
            X2
e|------------|---------------|
B|------------|---------------|
G|------------|---------------|
D|0-0-0-0-0-0-|---------------|
A|0-0-0-0-0-0-|---------------|
D|0-0-0-0-0-0—|-517/----------|
    * *   * *


Riff 11 Guitar2


e|-------------------------------------|
B|-2-3—5H6-5---2-3—8H10-8----2-3-5H6-5-|
G|0-----------0------------0-----------|
D|-------------------------------------|
A|-------------------------------------|
D|-------------------------------------|

Riff 12 Guitar1


e|--------------------------------------------------------------|
B|--------------------------------------------------------------|
G|--------------------------------------------------------------|
D|0-0-0-0-0-0-0-0-0-0-0—-3-3-3-3-3-3-3-3-3-3-3—-5-5-5-5-5-5-5-5-|
A|0-0-0-0-0-0-0-0-0-0-0—-3-3-3-3-3-3-3-3-3-3-3—-5-5-5-5-5-5-5-5-|
D|0—0-0-0-0-0-0-0-0-0-0—-3-3-3-3-3-3-3-3-3-3-3—-5-5-5-5-5-5-5-5-|
    * * * * * * * * * *    * * * * * * * * * *    * * * * * * *

e|--------------------------------------|
B|--------------------------------------|
G|--------------------------------------|
D|5-5-5—-8-8-8-8-8-8—-10-10-10-10-10-10-|
A|5-5-5—-8-8-8-8-8-8—-10-10-10-10-10-10-|
D|5-5-5—-8-8-8-8-8-8-—10-10-10-10-10-10-|
  * * *    * * * * *      *  *  *  *  *


e|--------------------------------------------------------------|
B|--------------------------------------------------------------|
G|--------------------------------------------------------------|
D|0-0-0-0-0-0-0-0-0-0-0—-3-3-3-3-3-3-3-3-3-3-3—-5-5-5-5-5-5-5-5-|
A|0-0-0-0-0-0-0-0-0-0-0—-3-3-3-3-3-3-3-3-3-3-3—-5-5-5-5-5-5-5-5-|
D|0—0-0-0-0-0-0-0-0-0-0—-3-3-3-3-3-3-3-3-3-3-3—-5-5-5-5-5-5-5-5-|
    * * * * * * * * * *    * * * * * * * * * *    * * * * * * *

e|--------------------------------------|
B|--------------------------------------|
G|--------------------------------------|
D|5-5-5—-8-8-8-8-8-8—-10-10-10-10-10-10-|
A|5-5-5—-8-8-8-8-8-8—-10-10-10-10-10-10-|
D|5-5-5—-8-8-8-8-8-8-—10-10-10-10-10-10-|
  * * *


Breakdown Guitar2
                                                            X2
e|-------8----------10---------8---------13---------8---10---13-|
B|5-6-5---5—-5-6-5----5—-5-6-5—-5—-5-6-5---5—-5-6-5—-5----5-----|
G|--------------------------------------------------------------|
D|--------------------------------------------------------------|
A|--------------------------------------------------------------|
D|--------------------------------------------------------------|



e|-----------------------|
B|6-6—8-8—10—-13---------|
G|-----------------------|
D|------------------0~---|
A|------------------0~---|
D|------------------0~---|


Riff 13 Guitar1&2

e|-5-5---8-8----5-5---8-8----5-5---8-8----5-5---8-8-------|
B|6-6-6-6-6-6—-6-6-6-6-6-6—-6-6-6-6-6-6--6-6-6—6-6--------|
G|--------------------------------------------------------|
D|--------------------------------------------------00-00-|
A|--------------------------------------------------00-00-|
D|--------------------------------------------------00-00-|
                                                    ** **

Riff 14 Guitar1

e|--------------------------------------------------------|
B|--------------------------------------------------------|
G|--------------------------------------------------------|
D|0-0-0-0-0-0-0-0-3-3-3-3-3-3-3-3-8-8-8-8-8-8-8-8-5-5-5-5-|
A|0-0-0-0-0-0-0-0-3-3-3-3-3-3-3-3-8-8-8-8-8-8-8-8—5-5-5-5-|
D|0-0-0-0-0-0-0-0-3-3-3-3-3-3-3-3-8-8-8-8-8-8-8-8-5-5-5-5-|

e|--------------------------------------------------------|
B|--------------------------------------------------------|
G|--------------------------------------------------------|
D|7-7-7-7-0-0-0-0-0-0-0-0-3-3-3-3-3-3-3-3-8-8-8-8-8-8-8-8-|
A|7-7-7-7-0-0-0-0-0-0-0-0-3-3-3-3-3-3-3-3-8-8-8-8-8-8-8-8-|
D|7-7-7-7-0-0-0-0-0-0-0-0-3-3-3-3-3-3-3-3-8-8-8-8-8-8-8-8-|

e|---------------------|
B|---------------------|
G|---------------------|
D|5—-5—-5—-5—-5--10-10-|
A|5—-5—-5—-5--5—-10-10-|
D|5—-5—-5—-5—-5—-10-10-|




Riff 14 Guitar2

e|--------------------------------------------------------|
B|--------------------------------------------------------|
G|10-10—-9--7—-5—/7—-10-10—-9--7—-5—-10-10—-9--7—-5—-7-7--|
D|-x—-x—-x--x—-x—-x---x—-x—-x--x—-x---x—-x—-x--x—-x—-x-x--|
A|-8—-8—-7--5--3—/5---8—-8—-7--5—-3---8—-8—-7--5—-3—-5-5--|
D|--------------------------------------------------------|

e|---------------|
B|---------------|
G|10-10-—9—-7—-5-|
D|-x—-x—-x—-x—-x-|   X2
A|-8—-8—-7—-5—-3-|
D|---------------|


Riff 15 Guitar1


e|--------------------------------------|
B|--------------------------------------|
G|--------------------------------------|
D|0-0-0-0-0-0-0-0-0-0-0-3/5—-7/8-7—-0-0-|
A|0-0-0-0-0-0-0-0-0-0-0-3/5-—7/8-7—-0-0-|
D|0-0-0-0-0-0-0-0-0-0-0-3/5—-7/8-7—-0-0-|
    * * * * * * * * * *
Suggest correction
comments
print report bad tab
11 comments total. Showing first comments.
+1 reply
SILVERSTEIN! 10 Jul 10, 2006 02:19 PM

Thanks man. I learned this a few days ago and it is right. Now I know 7 songs from the album, because I am posting since I learned two others. Definitely tab more, and tab some silverstein out for me!

-2 reply
blinkrocks 127 Jul 13, 2006 11:18 PM

Not to be a jerk but there should be 3 guitarist you got everything they play just the first should be broken up abit for the 3rd guitarist TJ the singer doent play all that much so break up what he plays and give it to the 3rd guitarist.

-1 reply
landrun 58 Sep 08, 2006 07:31 PM

its good thou annoying how its not sectioned into intro, verse, chorus etc, riffs gets annoying. still good tab :)

guest
You may want to rate the tab now too:
select rating
Wanna post a correction for this tab? Suggest correction