Oops, an error
Loading. Please wait.

Dissolve And Decay Tab

4,428 views 1 this week
4 commentsread comments
1 2 3 4 5
accurate
x 6
add to favorites
launch autoscroll
font size
0
reset
how to read this tab
guitar tuner
Autoscroll
slow
fast
+/-
esc
set tempo
stop
Help us to improve Ultimate-Guitar.com Take our survey!
×
Author
Difficulty
intermediate
Artist:Hawthorne Heights
Song:Dissolve And Decay
Tabber:Dennis Denison(xfadeld)

This is my first guitar tab. I usually do bass tabs but there was no guitar for this. Enjoi Guys.

E]---------------|
B]---------------|
G]---------------|
D]33333-----33333|
A]33333-----33333|
E]11111-----11111|


Clean
E]-(REPEAT 3 TIMES)-|--------------|
B]-----1--1--1--1-1-|----1--333333\|
G]---2--------------|--2-----------|
D]--0-0-------------|-0-0----------|
A]------------------|--------------|
E]------------------|--------------|


G1 Verse (part1)-medium dist.
E]--|---------------|
B]--|---------------|
G]--|---------------|
D]--|33333-----33333|
A]--|33333-----33333|
E]--|11111-----11111|
Pm...................

G2 verse(part1)-clean w/delay
E]--------------------------------------------------------|
B]------0------0----1--1--1--1-1----1--333333\------------|
G]-----5------5---2---------------2-----------------------|
D]---2------2----0-0-------------0-0----------------------|
A]-0------0-----------------------------------------------|
E]--------------------------------------------------------|


G1 verse (part 2)-medium Dist.-play twice
E]----------------------------------------|
B]----------------------------------------|
G]----------------------------------------|
D]7777777777777777777777771010101010101010|
A]7777777777777777777777771010101010101010|
E]5555555555555555555555558-8-8-8-8-8-8-8-|
Pm.........................................

E]--------------------------------|
B]--------------------------------|
G]--------------------------------|
D]33333333333333333333333333333333|
A]33333333333333333333333333333333|
E]11111111111111111111111111111111|

G2 verse (part2)-clean w/delay-play twice
E]-------0---------0--------------------------------------------|
B]------0-0-------0-0-----1--1--1--1-1----1--333333\------------|
G]-----5---------5------2---------------2-----------------------|
D]---2---------2-------0-0-------------0-0----------------------|
A]-0---------0--------------------------------------------------|
E]--------------------------------------------------------------|

G3 verse-cleanw/some effect
E]7--3--0-------------------------------------------------|
B]--------3-----------------------------------------------|
G]----------5/\-------------------------------------------|
D]--------------------------------------------------------|
A]--------------------------------------------------------|
D]--------------------------------------------------------|

G1 and G3
Prechorus-distortion
E]-------------|
B]-------------|
G]-------------|
D]7--------xxxx|
A]7--------xxxx|
E]5--------xxxx|
(wow! That was hard!)

G2
Prechorus-dist.
E](4 times)|
B]---------|
G]-----7-5-|I need some help on this one; its really hard
D]---5--5--|I tried using a program to slow it down but I'm
A]-05-5---5|still not sure.
E]---------|


G1 and G3
chorus-dist.
E]-------------------------------------------------------------|
B]-------------------------------------------------------------|
G]-----5555555555555555----------------------------------------|
D]xxxx-333333333333333355555555555555557------7------7------7--|
A]xxxx-333333333333333355555555555555557------7------7------7--|
E]xxxx-----------------33333333333333335------5------5------5--|

G2
chorus-dist.
E]-------------------------------------------------------------|
B]----------------------------------------3-------3------3-----|
G]xxxx-5555555555555555-----------------2------2-------2-----2-|
D]xxxx-33333333333333335555555555555555--0-0----0--0----0-0---0|
A]xxxx-33333333333333335555555555555555------------------------|
E]---------------------3333333333333333------------------------|

G1
The second verse is the same as the first except for the first part:
E]----------------------|----------------|--|
B]----------------------|----------------|--|
G]----------------------|----------------|--|
D]------33-3-333-3-3333-|33-3-333-3-3333-|7~|
A]------33-3-333-3-3333-|33-3-333-3-3333-|7~|
E]12\---11-1-111-1-1111-|11-1-111-1-1111-|5~|

G2&G3 are the same for both verses

repeat prechorus
repeat chorus X2

G1
Interlude
E]-0~-----------------------------------------------------|
B]-0~-----------------------------------------------------|
G]-2~-----------------------------------------------------|
D]-2~-----------------------------------------------------|
A]-0------------------------------------------------------|
E]-0------------------------------------------------------|


G1 interlude (pt2)-dist.
E]--------------------------------------------------------|
B]--------------------------------------------------------|
G]-5545--5545--4424-4424--2202-2202--4424-4424------------|
D]--------------------------------------------------------|
A]--------------------------------------------------------|
E]--------------------------------------------------------|

G2 interlude (pt2)-dist.
E]-8878--8878--7757-7757--5535-5535--7757-7757------------|
B]--------------------------------------------------------|
G]--------------------------------------------------------|
D]--------------------------------------------------------|
A]--------------------------------------------------------|
E]--------------------------------------------------------|

G1&2 bridge-dist.
E]----------------------------|------------|--|
B]----------------------------|(play twice)|--|
G]----------------------------|------------|--|
D]-7757-2-7757-2-7757-2-7757-2|-7~-5~-3~-5~|7~|
A]-7757-2-7757-2-7757-2-7757-2|-7~-5~-3~-5~|7~|
E]-5535-0-5535-0-5535-0-5535-0|-5~-3~-1~-3~|5~|

G3 bridge
   dist.                       clean w/tremlo effect
E]----------------------------|--------------5-3--------------|--|
B]----------------------------|5-----------7----5-----------7-|--|
G]----------------------------|-5----54--57------5----54--57--|--|
D]-7757-2-7757-2-7757-2-7757-2|--7-57-------------7-57--------|7~|
A]-7757-2-7757-2-7757-2-7757-2|-------------------------------|7~|
E]-5535-0-5535-0-5535-0-5535-0|------(I need help here too)---|5~|

G1&3 bridge (pt2)-dist.
E]----------------|------------------|----------|
B]----------------|------------------|----------|
G]----------------|------------------|----------|
D]7---7---7~----33|--5555555555555555|7---7---7-|
A]7---7---7~----33|--5555555555555555|7---7---7-|
D]5---5---5~----11|--3333333333333333|5---5---5-|

G2 bridge(pt2)-dist.
E]--------|----------------------------|--------|--------
B](8times)|----------------------------|(3times)|--------
G]----7---|-------------999777710101010|----7---|--------
D]--5---5-|-------------xxxxxxxx x x x-|--5---5-|--5-xxxx
A]---5-5-5|33322225555--77755558 8 8 8-|---5-5-5|---5xxxx
E]53------|----------------------------|53------|53--xxxx

repeat chorus twice wtih this inbetween

E]-------|
B]-------|
G]-------|
D]777-555|
A]777-555|
E]555-333|

end on
E|-|
B|-|
G|-|
D|7|
A|7|
E|5|
Suggest correction
comments
print report bad tab
4 comments total. Showing first comments.
0 reply
que777 140 wrote on February 20 2007, 01:58 pm

hmmmmm...this tab seems very familiar....oh yeah! It was mine! anyway, I tabed this like two and a half years ago but it's not that good so I think I'm gonna redo it...

0 reply
emolove 30 wrote on January 23 2008, 05:09 pm

wtf....?
if it yours why this guy has it????
....about the tab...,i think the chorus has another guitar....playing
just two strings...i dont know how its called...lol..xD

0 reply
emolove 30 wrote on January 23 2008, 05:25 pm

if anyone get me.... mean, the parts where one guitar plays two string at the same time...

guest
You may want to rate the tab now too:
select rating
Wanna post a correction for this tab? Suggest correction