Oops, an error
Loading. Please wait.

Do You Have A Map Cause Im Lost In Your Eyes Bass Tab

266 views 1 this week
1 commentread comment
1 2 3 4 5
excellent!
x 2
add to favorites
launch autoscroll
font size
0
reset
guitar tuner
Tab Pro tools
  • play this tab
  • loop segment
  • change instrument
  • show fretboard
  • metronome
Autoscroll
slow
fast
+/-
esc
set tempo
stop
Contributor
+++++++++++++++++++++++++++++++++++++++++++++++++++++++++++++++++++++
| Hawthorne Heights- Do You Have A Map? Cause I'm Lost In Your Eyes |
+++++++++++++++++++++++++++++++++++++++++++++++++++++++++++++++++++++

(A Day In The Life)

EADG


Verse
"And if tomorrow..."
1.
G|------------------------------------------------------|
D|------------------------------------------------------|
A|-2x----2-0~------------0~----2x----2-0~------------0~-|--x2
E|---------------2x----2---------------------2x----2----|

Pre-Chorus
"Tomorrow we'll be..."
2.
G|-------------------------------------------------------------------------|
D|-------------------------------------------------------------------------|
A|-22222222-22222222-00000000-00000000-------------------00000000-00000000-|--x2
E|-------------------------------------33333333-33333333-------------------|

Chorus
"Why was I?"
3.
G|---------------------------------------------------------|
D|---------------------------------------------------------|
A|-2~--2~----4~--5~----------------------00000000-00000000-|--x2
E|---------------------22222222-22222222-------------------|

Outro
4.
G|-------------------------------------------------|
D|-------------------------------------------------|
A|-2~----0~----------0~----2~----0~----------0~----|
E|-------------2~----------------------2~----------|

Verse
"Tomorrow we'll be..." A little slower...
5.
G|-------------------------------------------------------------------------|
D|-------------------------------------------------------------------------|
A|-22222222-22222222-00000000-00000000-------------------00000000-00000000-|--x2
E|-------------------------------------33333333-33333333-------------------|

Pre-Chorus
"Everything you've broken..."
6.
G|-------------------------------------------------|
D|-------------------------------------------------|
A|-2~----0~----------0~----2~----0~----------0~----|
E|-------------3~----------------------3~----------|

Chorus
"Why was I?"
7.
G|---------------------------------------------------------|
D|---------------------------------------------------------|
A|-2~--2~----4~--5~----------------------00000000-00000000-|--x2
E|---------------------22222222-22222222-------------------|

Outro
8.
G|--------------------------------------------------------|
D|--------------------------------------------------------|
A|-2~-----------------------------------------------------|
E|--------------------------------------------------------|

Bridge 2:26
9.
G|-------------------------------------------------------------------|
D|----------------------------------------------------44-44-22-22-2~-|
A|-22-22-22-22-2222-44-44-44-44-4444-55-55-55-55-5555----------------|
E|-------------------------------------------------------------------|

10.
G|---------------------------------------------------------------------|
D|---------------------------------------------------------------------|
A|-22-22-22-22-2222-00-00-00-00-0000-----------------------------------|--x2
E|-----------------------------------33-33-33-33-3333-22-22-33-33-3333-|

Outro
11.
G|---------------------------|
D|---------------------------|
A|-22--00--55-----0-0-2~-----|
E|-------------33------------|

Lyrics:

And if tomorrow should be the last day I could ever tell you
I was in love with your smile, In love with your eyes.
Tomorrow will be a-okay, just to say I loved you way too much.
I should have said anything instead of making no sense at all...
Why was I chasing falling stars instead of you?
Why was I breaking my own heart instead of embracing yours?

Tomorrow will be a-okay, just to say I loved you way too much.
I should have said anything instead...
Anything

Everything is broken, put it back together.
Everything just falls apart
Everything is broken... Yeah Everything, Everything.

Why was I chasing falling stars instead of you?
Why was I breaking my own heart instead of embracing yours?

Just remember, to save me one last dance.
And please try to close your eyes.

+++++++++++++++++++++++++++++++++
| RaiLeff                       |
| Underground__Dora@Hotmail.Com |
+++++++++++++++++++++++++++++++++
comments
We did not receive enough feedback on this tab! Please rate:
print report bad tab
1 2 3 4 5
1 comment total.
0 reply
laperra wrote on June 29 2007, 06:28 pm

this is like my favorite song, i love the tabs

I want to post or [tab]
guest
You may want to rate the tab now too:
select rating
Please do not post tabs as comments. Select "correction" instead!