Oops, an error
Loading. Please wait.

Life On Standby tab

version 3
version 3

Whole song

Interactive

6,423 views 3 this week
6 commentsread comments
1 2 3 4 5
x 8
add to favorites
×
Save as Personal and add changes to this tab that will be seen only by you. Learn more ›
×
You can save this tab as Personal to edit and correct it or add notes. All changes will be seen only by you. Learn more »
launch autoscroll
font size
0
reset
how to read this tab
guitar tuner
edit
Autoscroll
slow
fast
+/-
esc
set tempo
stop
Author
Difficulty
Tabbed By Chemical_High32

Notes:Not finished but close.

Artist:	Hawthorne Heights
Song:	Life On Standby
Album:	The Silence In Black And White
Label:	Victory Records
Year:	2005

Key:
|:| h  - hammer on
|:| p  - pull off
|:| b  - bend
|:| /  - slide
|:| <> - natural harmonic
|:| [] - artificial harmonic
|:| ~  - let ring
|:| x  - mute string (ex. [5 x 7 x x x])
|:| .  - palm mute
|:| () - ghost note  (ex. 5~ (5) - play '5' once & let ring)

Tuning - Standard(EADGBe)

Tone:
[1] - Distortion
[2] - Distortion
[3] - Distortion

------------------------------|-----------|------------------------------|
------------------------------|---Intro---|------------------------------|
------------------------------|-----------|------------------------------|

[1]
e|:|--------------------------------------------------------------------|
B|:|--------------------------------------------------------------------|
G|:|--------------------------------------------------------------------|
D|:|-2--2-2--2--2-2--2--2-2--2--2-2--2--2-2--2--2-2--2--2-2--x-x-x-x----|
A|:|-2--2-2--2--2-2--2--2-2--2--2-2--2--2-2--2--2-2--2--2-2--x-x-x-x----|
E|:|-0--0-0--0--0-0--0--0-0--0--0-0--0--0-0--0--0-0--0--0-0--x-x-x-x----|
 |
[2]
e|:|--------------------------------------------------------------------|
B|:|--------------------------------------------------------------------|
G|:|--------------------------------------------------------------------|
D|:|-9--9-9--9--9-9--9--9-9--9--9-9--9--9-9--9--9-9--9--9-9--x-x-x-x----|
A|:|-7--7-7--7--7-7--7--7-7--7--7-7--7--7-7--7--7-7--7--7-7--x-x-x-x----|
E|:|-0--0-0--0--0-0--0--0-0--0--0-0--0--0-0--0--0-0--0--0-0--x-x-x-x----|
 |
[3]
e|:|--------------------------------------------------------------------|
B|:|--------------------------------------------------------------------|
G|:|--------------------------------------------------------------------|
D|:|-9--9-9--9--9-9--9--9-9--9--9-9--9--9-9--9--9-9--9--9-9--x-x-x-x----|
A|:|-7--7-7--7--7-7--7--7-7--7--7-7--7--7-7--7--7-7--7--7-7--x-x-x-x----|
E|:|-0--0-0--0--0-0--0--0-0--0--0-0--0--0-0--0--0-0--0--0-0--x-x-x-x----|


------------------------------|--------------|------------------------------|
------------------------------|---PreVerse---|------------------------------|
------------------------------|--------------|------------------------------|

[1]
e|:|---------------------------------------------------------------------|
B|:|---------------------------------------------------------------------|
G|:|---------------------------------------------------------------------|
D|:|-2--2-2------------2--2-2--2-2-2--------2--2-2--2-2-2----------------|
A|:|-2--2-2------------2--2-2--2-2-2--------2--2-2--2-2-2----------------|
E|:|-0--0-0------------0--0-0--0-0-0--------0--0-0--0-0-0----------------|
 |
[2]
e|:|---------------------------------------------------------------------|
B|:|---------------------------------------------------------------------|
G|:|-9--9-9-/12--11-11-9--9-9--9-9-9--9/12--9--9-9--9-9-9----------------|
D|:|-x--x-x--x---x--x--x--x-x--x-x-x--x-----x--x-x--x-x-x----------------|
A|:|-7--7-7-/10--9--9--7--7-7--7-7-7--7/10--7--7-7--7-7-7----------------|
E|:|-0--0-0------------0--0-0--0-0-0--------0--0-0--0-0-0----------------|
 |
[3]
e|:|---------------------------------------------------------------------|
B|:|---------------------------------------------------------------------|
G|:|--------/12--11-11-9--------------9/12--9----------------------------|
D|:|---------x---x--x--x--------------x-----x----------------------------|
A|:|--------/10--9--9--7--------------7/10--7----------------------------|
E|:|-0--0-0------------0--0-0--0-0-0--------0--0-0--0-0-0----------------|
 pm  .  . .               . .  . . .           . .  . . .


------------------------------|---------------|------------------------------|
------------------------------|---Interlude---|------------------------------|
------------------------------|---------------|------------------------------|

Tone:
[1] - Distortion
[2] - Flanger
[3] - Clean

[1]
e|:|----------------|
B|:|----------------|
G|:|--<7>-----------|
D|:|--<5>-----------|
A|:|----------------|
E|:|----------------|
 |
[2]
e|:|----------------|-------------|---------------|--------------------------------------------|
B|:|----------------|-------------|---------------|--------------------------------------------|
G|:|-------------11-|-------------|------------11-|-------------11-------------------11--------|
D|:|----------12----|----------12-|---------12----|-------12-------12----12----12-------12-----|
A|:|----10----------|----10-------|----10---------|----10----10-------10----------10-------10--|
E|:|-12----12-------|-10----10----|--8----8-------|-10----------------------10-----------------|
 |
[3]
e|:|----------------------------------------------|--------------------------------------------|
B|:|----------------------------------------------|--------------------------------------------|
G|:|----------------------------------------------|--(19)~-------------------------------------|
D|:|----------------------------------------------|--------------------------------------------|
A|:|----------------------------------------------|--------------------------------------------|
E|:|----------------------------------------------|--------------------------------------------|
						       ^Fade In


------------------------------|-----------|------------------------------|
------------------------------|---Verse---|------------------------------|
------------------------------|-----------|------------------------------|


[Part I]

[1]
e|:|----------------|
B|:|----------------|
G|:|----------------|
D|:|----------------|
A|:|----------------|
E|:|----------------|
 |
[2]
e|:|----------------|-------------|---------------|--------------------------------------------|
B|:|----------------|-------------|---------------|--------------------------------------------|
G|:|-------------11-|-------------|------------11-|-------------11-------------------11--------|
D|:|----------12----|----------12-|---------12----|-------12-------12----12----12-------12-----|
A|:|----10----------|----10-------|----10---------|----10----10-------10----------10-------10--|
E|:|-12----12-------|-10----10----|--8----8-------|-10----------------------10-----------------|
 |
[3]
e|:|-------------------------------------------------------------------------------------------|
B|:|-21---------------20------------17--------------------12-----------------------------------|
G|:|-------------19------------16--------------14---9------------------------------------------|
D|:|-------------------------------------------------------------------------------------------|
A|:|-------------------------------------------------------------------------------------------|
E|:|-------------------------------------------------------------------------------------------|

[Part II]

[1]faint riff
e|:|--------------------------------------------------|----------------------------------------|
B|:|--------------------------------------------------|----------------------------------------|
G|:|--------------------14-14-14-14-14-14-14-14-14-14-|----------------------------------------|
D|:|--------------------12-12-12-12-12-12-12-12-12-12-|----------------------------------------|
A|:|--10-10-10-10-10-10------------------------------(x4)--------------------------------------|
E|:|--------------------------------------------------|----------------------------------------|
 |pm  .  .  .  .  .  .  .  .  .  .  .  .  .  .  .  .
[2]
e|:|----------------|-------------|---------------|--------------------------------------------|
B|:|----------------|-------------|---------------|--------------------------------------------|
G|:|-------------11-|-------------|------------11-|-------------11-------------------11--------|
D|:|----------12----|----------12-|---------12----|-------12-------12----12----12-------12-----|
A|:|----10----------|----10-------|----10---------|----10----10-------10----------10-------10--|
E|:|-12----12-------|-10----10----|--8----8-------|-10----------------------10-----------------|
 |
[3]
e|:|-------------------------------------------------------------------------------------------|
B|:|-21---------------20------------17--------------------12-----------------------------------|
G|:|-------------19------------16--------------14---9------------------------------------------|
D|:|-------------------------------------------------------------------------------------------|
A|:|-------------------------------------------------------------------------------------------|
E|:|-------------------------------------------------------------------------------------------|

[Part III]

[1]faint riff(guitar 3's riff, 1 octave lower, & palm muted)
e|:|-------------------------------------------------------------------------------------------|
B|:|-------------------------------------------------------------------------------------------|
G|:|-12p11----11--12p11----11\9----9p7---7--9p7---7--------------------------------------------|
D|:|-------12-----------12------7------9--------9---5--5-5-5-5-5-5-----------------------------|
A|:|---------------------------------------------------5-5-5-5-5-5-----------------------------|
E|:|-------------------------------------------------------------------------------------------|
 |pm .  .  .  .   .  .  .  .    .  .   . .  . . . . .  . . . . . .
[2]
e|:|----------------|-------------|---------------|--------------------------------------------|
B|:|----------------|-------------|---------------|--------------------------------------------|
G|:|-------------11-|-------------|------------11-|-------------11-------------------11--------|
D|:|----------12----|----------12-|---------12----|-------12-------12----12----12-------12-----|
A|:|----10----------|----10-------|----10---------|----10----10-------10----------10-------10--|
E|:|-12----12-------|-10----10----|--8----8-------|-10----------------------10-----------------|
 |
[3]
e|:|-------------------------------------------------------------------------------------------|
B|:|-20p19----19--20p19----19\17-----17p15----15--17p15----15\8---8~--------8~--10~------------|
G|:|-------19-----------19-------14--------16-----------16-------------7~----------------------|
D|:|-------------------------------------------------------------------------------------------|
A|:|-------------------------------------------------------------------------------------------|
E|:|-------------------------------------------------------------------------------------------|


------------------------------|------------|------------------------------|
------------------------------|---Chorus---|------------------------------|
------------------------------|------------|------------------------------|

Tone:
[1] - Distortion
[2] - Distortion
[3] - Distortion

[1]
e|:|-------------------------------------|------------|
B|:|-------------------------------------|------------|
G|:|----5-5-5-5-5-5-5-5-5-5-5-5-5-5--7---|------------|
D|:|----5-5-5-5-5-5-5-5-5-5-5-5-5-5--x---|------------|
A|:|----3-3-3-3-3-3-3-3-3-3-3-3-3-3--5-(x2)-----------|
E|:|-------------------------------------|------------|
 |   Just say that its over             its over and shes gone
[2]
e|:|---------------------------------------|
B|:|---------------------------------------|
G|:|------7---8---8---8---8---8---8--------|
D|:|--4/7---7---7---7---7---7---7---7------|
A|:|---------------------------------------|(x2)
E|:|---------------------------------------|
 |
[3]
e|:|-------------------------------------|
B|:|-------------------------------------|
G|:|-------------------------------------|
D|:|-------------------------------------|
A|:|-------------------------------------|
E|:|-------------------------------------|


[1]
e|:|-----------------------------------------------|
B|:|-----------------------------------------------|
G|:|---------9---------7---------5--------4/5------|
D|:|---------x---------x---------x--------x--------|
A|:|---------7---------5---------3--------2/3------|
E|:|--0-0-0-----0-0-0-----0-0-0-----0-0-0----------|
 |pm  . . .     . . .     . . .     . . .
[2]
e|:|-----------------------------------------------|
B|:|-----------------------------------------------|
G|:|---------9---------7---------5--------4/5------|
D|:|---------x---------x---------x--------x--------|
A|:|---------7---------5---------3--------2/3------|
E|:|--0-0-0-----0-0-0-----0-0-0-----0-0-0----------|
 |pm  . . .     . . .     . . .     . . .
[3]
e|:|-----------------------------------------------|
B|:|-----------------------------------------------|
G|:|-----------------------------------------------|
D|:|-----------------------------------------------|
A|:|-----------------------------------------------|
E|:|-----------------------------------------------|
            She's     Not      Coming     Home


[1]
e|:|-------------------------------------|------------|
B|:|-------------------------------------|------------|
G|:|----5-5-5-5-5-5-5-5-5-5-5-5-5-5--7---|------------|
D|:|----5-5-5-5-5-5-5-5-5-5-5-5-5-5--x---|------------|
A|:|----3-3-3-3-3-3-3-3-3-3-3-3-3-3--5-(x2)-----------|
E|:|-------------------------------------|------------|
 |   Don't Worry he said                and shes not coming home
[2]
e|:|---------------------------------------|
B|:|---------------------------------------|
G|:|------7---8---8---8---8---8---8--------|
D|:|--4/7---7---7---7---7---7---7---7------|
A|:|---------------------------------------|(x2)
E|:|---------------------------------------|
 |
[3]
e|:|-------------------------------------|
B|:|-------------------------------------|
G|:|-------------------------------------|
D|:|-------------------------------------|
A|:|-------------------------------------|
E|:|-------------------------------------|


[1]
e|:|-----------------------------------------------|
B|:|-----------------------------------------------|
G|:|---------9---------7---------5--------4/5------|
D|:|---------x---------x---------x--------x--------|
A|:|---------7---------5---------3--------2/3------|
E|:|--0-0-0-----0-0-0-----0-0-0-----0-0-0----------|
 |pm  . . .     . . .     . . .     . . .
[2]
e|:|-----------------------------------------------|
B|:|-----------------------------------------------|
G|:|---------9---------7---------5--------4/5------|
D|:|---------x---------x---------x--------x--------|
A|:|---------7---------5---------3--------2/3------|
E|:|--0-0-0-----0-0-0-----0-0-0-----0-0-0----------|
 |pm  . . .     . . .     . . .     . . .
[3]
e|:|-----------------------------------------------|
B|:|-----------------------------------------------|
G|:|-----------------------------------------------|
D|:|-----------------------------------------------|
A|:|-----------------------------------------------|
E|:|-----------------------------------------------|
            She's     Not      Coming     Home


[1]
e|:|----------------|
B|:|----------------|
G|:|--5~----/7~-----|
D|:|--5~----/7~-----|
A|:|--3~----/5~-----|
E|:|----------------|
 | Its over and she's gone
[2]
e|:|----------------|
B|:|----------------|
G|:|--5~----/7~-----|
D|:|--5~----/4~-----|
A|:|--3~----/5~-----|
E|:|----------------|
 |
[3]
e|:|----------------|
B|:|----------------|
G|:|----------------|
D|:|----------------|
A|:|----------------|
E|:|----------------|

------------------------------|---------------|------------------------------|
------------------------------|---Interlude---|------------------------------|
------------------------------|---------------|------------------------------|

Tone:
[1] - Distortion
[2] - Flanger
[2] - Clean

[1]
e|:|----------------|
B|:|----------------|
G|:|----------------|
D|:|----------------|
A|:|----------------|
E|:|----------------|
 |
[2]
e|:|----------------|-------------|---------------|--------------------------------------------|
B|:|----------------|-------------|---------------|--------------------------------------------|
G|:|-------------11-|-------------|------------11-|-------------11-------------------11--------|
D|:|----------12----|----------12-|---------12----|-------12-------12----12----12-------12-----|
A|:|----10----------|----10-------|----10---------|----10----10-------10----------10-------10--|
E|:|-12----12-------|-10----10----|--8----8-------|-10----------------------10-----------------|
 |
[3]
e|:|----------------------------------------------|--------------------------------------------|
B|:|----------------------------------------------|--------------------------------------------|
G|:|----------------------------------------------|--(19)~-------------------------------------|
D|:|----------------------------------------------|--------------------------------------------|
A|:|----------------------------------------------|--------------------------------------------|
E|:|----------------------------------------------|--------------------------------------------|

------------------------------|-----------|------------------------------|
------------------------------|---Verse---|------------------------------|
------------------------------|-----------|------------------------------|


[Part I]

[1]
e|:|--------------------------------------------------|----------------------------------------|
B|:|--------------------------------------------------|----------------------------------------|
G|:|--------------------14-14-14-14-14-14-14-14-14-14-|----------------------------------------|
D|:|--------------------12-12-12-12-12-12-12-12-12-12-|----------------------------------------|
A|:|--10-10-10-10-10-10------------------------------(x4)--------------------------------------|
E|:|--------------------------------------------------|----------------------------------------|
 |pm  .  .  .  .  .  .  .  .  .  .  .  .  .  .  .  .
 |
[2]
e|:|----------------|-------------|---------------|--------------------------------------------|
B|:|----------------|-------------|---------------|--------------------------------------------|
G|:|-------------11-|-------------|------------11-|-------------11-------------------11--------|
D|:|----------12----|----------12-|---------12----|-------12-------12----12----12-------12-----|
A|:|----10----------|----10-------|----10---------|----10----10-------10----------10-------10--|
E|:|-12----12-------|-10----10----|--8----8-------|-10----------------------10-----------------|
 |
[3]
e|:|-------------------------------------------------------------------------------------------|
B|:|-21---------------20------------17--------------------12-----------------------------------|
G|:|-------------19------------16--------------14---9------------------------------------------|
D|:|-------------------------------------------------------------------------------------------|
A|:|-------------------------------------------------------------------------------------------|
E|:|-------------------------------------------------------------------------------------------|


[Part II]

[1]faint riff(guitar 3's riff, 1 octave lower, & palm muted)
e|:|-------------------------------------------------------------------------------------------|
B|:|-------------------------------------------------------------------------------------------|
G|:|-12p11----11--12p11----11\9----9p7---7--9p7---7--------------------------------------------|
D|:|-------12-----------12------7------9--------9---5--5-5-5-5-5-5-----------------------------|
A|:|---------------------------------------------------5-5-5-5-5-5-----------------------------|
E|:|-------------------------------------------------------------------------------------------|
 |pm
[2]
e|:|----------------|-------------|---------------|--------------------------------------------|
B|:|----------------|-------------|---------------|--------------------------------------------|
G|:|-------------11-|-------------|------------11-|-------------11-------------------11--------|
D|:|----------12----|----------12-|---------12----|-------12-------12----12----12-------12-----|
A|:|----10----------|----10-------|----10---------|----10----10-------10----------10-------10--|
E|:|-12----12-------|-10----10----|--8----8-------|-10----------------------10-----------------|
 |
[3]
e|:|-------------------------------------------------------------------------------------------|
B|:|-20p19----19--20p19----19\17-----17p15----15--17p15----15\8---8---8-10---------------------|
G|:|-------19-----------19-------14--------16-----------16----------7--------------------------|
D|:|-------------------------------------------------------------------------------------------|
A|:|-------------------------------------------------------------------------------------------|
E|:|-------------------------------------------------------------------------------------------|

------------------------------|------------|------------------------------|
------------------------------|---Chorus---|------------------------------|
------------------------------|------------|------------------------------|

Tone:
[1] - Distortion
[2] - Distortion
[3] - Distortion

[1]
e|:|-------------------------------------|------------|
B|:|-------------------------------------|------------|
G|:|----5-5-5-5-5-5-5-5-5-5-5-5-5-5--7---|------------|
D|:|----5-5-5-5-5-5-5-5-5-5-5-5-5-5--x---|------------|
A|:|----3-3-3-3-3-3-3-3-3-3-3-3-3-3--5-(x2)-----------|
E|:|-------------------------------------|------------|
 |   Just say that its over             its over and shes gone
[2]
e|:|---------------------------------------|
B|:|---------------------------------------|
G|:|------7---8---8---8---8---8---8--------|
D|:|--4/7---7---7---7---7---7---7---7------|
A|:|---------------------------------------|(x2)
E|:|---------------------------------------|
 |
[3]
e|:|-------------------------------------|
B|:|-------------------------------------|
G|:|-------------------------------------|
D|:|-------------------------------------|
A|:|-------------------------------------|
E|:|-------------------------------------|


[1]
e|:|-----------------------------------------------|
B|:|-----------------------------------------------|
G|:|---------9---------7---------5--------4/5------|
D|:|---------x---------x---------x--------x--------|
A|:|---------7---------5---------3--------2/3------|
E|:|--0-0-0-----0-0-0-----0-0-0-----0-0-0----------|
 |pm  . . .     . . .     . . .     . . .
[2]
e|:|-----------------------------------------------|
B|:|-----------------------------------------------|
G|:|---------9---------7---------5--------4/5------|
D|:|---------x---------x---------x--------x--------|
A|:|---------7---------5---------3--------2/3------|
E|:|--0-0-0-----0-0-0-----0-0-0-----0-0-0----------|
 |pm  . . .     . . .     . . .     . . .
[3]
e|:|-----------------------------------------------|
B|:|-----------------------------------------------|
G|:|-----------------------------------------------|
D|:|-----------------------------------------------|
A|:|-----------------------------------------------|
E|:|-----------------------------------------------|
            She's     Not      Coming     Home


[1]
e|:|-------------------------------------|------------|
B|:|-------------------------------------|------------|
G|:|----5-5-5-5-5-5-5-5-5-5-5-5-5-5--7---|------------|
D|:|----5-5-5-5-5-5-5-5-5-5-5-5-5-5--x---|------------|
A|:|----3-3-3-3-3-3-3-3-3-3-3-3-3-3--5-(x2)-----------|
E|:|-------------------------------------|------------|
 |   Don't Worry he said                and shes not coming home
[2]
e|:|---------------------------------------|
B|:|---------------------------------------|
G|:|------7---8---8---8---8---8---8--------|
D|:|--4/7---7---7---7---7---7---7---7------|
A|:|---------------------------------------|(x2)
E|:|---------------------------------------|
 |
[3]
e|:|-------------------------------------|
B|:|-------------------------------------|
G|:|-------------------------------------|
D|:|-------------------------------------|
A|:|-------------------------------------|
E|:|-------------------------------------|


[1]
e|:|-----------------------------------------------|
B|:|-----------------------------------------------|
G|:|---------9---------7---------5--------4/5------|
D|:|---------x---------x---------x--------x--------|
A|:|---------7---------5---------3--------2/3------|
E|:|--0-0-0-----0-0-0-----0-0-0-----0-0-0----------|
 |pm  . . .     . . .     . . .     . . .
[2]
e|:|-----------------------------------------------|
B|:|-----------------------------------------------|
G|:|---------9---------7---------5--------4/5------|
D|:|---------x---------x---------x--------x--------|
A|:|---------7---------5---------3--------2/3------|
E|:|--0-0-0-----0-0-0-----0-0-0-----0-0-0----------|
 |pm  . . .     . . .     . . .     . . .
[3]
e|:|-----------------------------------------------|
B|:|-----------------------------------------------|
G|:|-----------------------------------------------|
D|:|-----------------------------------------------|
A|:|-----------------------------------------------|
E|:|-----------------------------------------------|
            She's     Not      Coming     Home


[1]
e|:|----------------|
B|:|----------------|
G|:|--5~----/7~-----|
D|:|--5~----/7~-----|
A|:|--3~----/5~-----|
E|:|----------------|
 | Its over and she's gone
[2]
e|:|----------------|
B|:|----------------|
G|:|--5~----/7~-----|
D|:|--5~----/4~-----|
A|:|--3~----/5~-----|
E|:|----------------|
 |
[3]
e|:|----------------|
B|:|----------------|
G|:|----------------|
D|:|----------------|
A|:|----------------|
E|:|----------------|

------------------------------|---------------|------------------------------|
------------------------------|---Interlude---|------------------------------|
------------------------------|---------------|------------------------------|
Tone:
[1] - Flanger
[2] - Flanger

[1]
e|:|-----------------------------------------|
B|:|-----------------------------------------|
G|:|-----9--------7--------5--------7--------|
D|:|-----9--------4--------2--------4--------|
A|:|-----7--------5--------3--------5--------|
E|:|--0--------0--------0--------0-----------|
 |
[2]
e|:|-----------------------------------------|
B|:|-----------------------------------------|
G|:|-----9--------7--------5--------7--------|
D|:|-----x--------x--------x--------x--------|
A|:|-----7--------5--------3--------5--------|
E|:|--0--------0--------0--------0-----------|
 |
[3]
e|:|-----------------------------------------|
B|:|-----------------------------------------|
G|:|-----------------------------------------|
D|:|-----------------------------------------|
A|:|-----------------------------------------|
E|:|-----------------------------------------|

Tone:
[1] - Distortion
[2] - Distortion
[3] - Distortion

[1]
e|:|---------------------------------|
B|:|---------------------------------|
G|:|---------------------------------|
D|:|---------------------------------|
A|:|---------------------------------|
E|:|---------------------------------|
[2]
 |
e|:|---------------------------------|-------|
B|:|---------------------------------|--<9>--|
G|:|---------------------------------|-------|
D|:|---------------------------------|-------|
A|:|---------------------------------|-------|
E|:|---------------------------------|-------|
 |
[3]
e|:|---------------------------------|
B|:|---------------------------------|
G|:|--5--5--5--5-----5--5--5--5------|
D|:|--5--5--5--5-----5--5--5--5------|
A|:|--3--3--3--3-----3--3--3--3------|
E|:|--3--3--3--3-----3--3--3--3------|


[1]
e|:|---------------------------------|
B|:|---------------------------------|
G|:|---------------------------------|
D|:|--2--2--2--2-----2--2--2--2------|
A|:|--2--2--2--2-----2--2--2--2------|
E|:|--0--0--0--0-----0--0--0--0------|
 |    Wake Up!
[2]
e|:|---------------------------------|
B|:|---------------------------------|
G|:|---------------------------------|
D|:|--2--2--2--2-----2--2--2--2------|
A|:|--2--2--2--2-----2--2--2--2------|
E|:|--0--0--0--0-----0--0--0--0------|
 |
[3]
e|:|---------------------------------|
B|:|---------------------------------|
G|:|---------------------------------|
D|:|---------------------------------|
A|:|---------------------------------|
E|:|---------------------------------|


[1]
e|:|-----------------------------------|
B|:|--------------8--------------5-----|
G|:|--5--5--5--5--7--5--5--5--5--4-----|
D|:|--5--5--5--5-----5--5--5--5--------|
A|:|--3--3--3--3-----3--3--3--3--------|
E|:|-----------------------------------|
 |    Wake Up!
[2]
e|:|-----------------------------------|
B|:|-------------12--------------9-----|
G|:|--5--5--5--5-12--5--5--5--5--9-----|
D|:|--5--5--5--5-----5--5--5--5--------|
A|:|--3--3--3--3-----3--3--3--3--------|
E|:|-----------------------------------|
 |
[3]
e|:|-----------------------------------|
B|:|-----------------------------------|
G|:|-----------------------------------|
D|:|-----------------------------------|
A|:|-----------------------------------|
E|:|-----------------------------------|


[1]
e|:|-----------------------------------|
B|:|--------------8--------------10/---|
G|:|--------------7--------------9-/---|
D|:|--2--2--2--2-----2--2--2--2--------|
A|:|--2--2--2--2-----2--2--2--2--------|
E|:|--0--0--0--0-----0--0--0--0--------|
 |
[2]
e|:|-----------------------------------|
B|:|-------------12--------------10/---|
G|:|-------------12--------------9-/---|
D|:|--2--2--2--2-----2--2--2--2--------|
A|:|--2--2--2--2-----2--2--2--2--------|
E|:|--0--0--0--0-----0--0--0--0--------|
 |
[3]
e|:|-----------------------------------|
B|:|-----------------------------10/---|
G|:|-----------------------------9-/---|
D|:|-----------------------------------|
A|:|-----------------------------------|
E|:|-----------------------------------|


[1]
e|:|--------------------------|--------------------------------|
B|:|--------------------------|--------------------------------|
G|:|--5-5-5-5-5-5-5-5-5-5-5-5-|--------------------------------|
D|:|--5-5-5-5-5-5-5-5-5-5-5-5-|-2-2-2-2-2-2-2-2-2-2-2-2--------|
A|:|--3-3-3-3-3-3-3-3-3-3-3-3-|-2-2-2-2-2-2-2-2-2-2-2-2--------|
E|:|--------------------------|-0-0-0-0-0-0-0-0-0-0-0-0--------|
 |
[2]
e|:|--------------------------|--------------------------------|
B|:|--------------------------|--------------------------------|
G|:|--5-5-5-5-5-5-5-5-5-5-5-5-|--------------------------------|
D|:|--5-5-5-5-5-5-5-5-5-5-5-5-|-2-2-2-2-2-2-2-2-2-2-2-2--------|
A|:|--3-3-3-3-3-3-3-3-3-3-3-3-|-2-2-2-2-2-2-2-2-2-2-2-2--------|
E|:|--------------------------|-0-0-0-0-0-0-0-0-0-0-0-0--------|
 |
[3]
e|:|----------10--------------|----------------------------------|
B|:|-12-------------10-12p10--|----------------------------------|
G|:|----12-12----12-----------|----------------------------------|
D|:|--------------------------|----12-------16----11h12----------|
A|:|-------------------------(x2)-----14-14----14-------14-------|(x2)
E|:|--------------------------|----------------------------------|

[1]
e|:|--------------------------|--------------------------------|
B|:|--------------------------|--------------------------------|
G|:|--5-5-5-5-5-5-5-5-5-5-5-5-|--------------------------------|
D|:|--5-5-5-5-5-5-5-5-5-5-5-5-|-2-2-2-2-2-2-2-2-2-2-2-2--------|
A|:|--3-3-3-3-3-3-3-3-3-3-3-3-|-2-2-2-2-2-2-2-2-2-2-2-2--------|
E|:|--------------------------|-0-0-0-0-0-0-0-0-0-0-0-0--------|
 |
[2]
e|:|--------------------------|--------------------------------|--<4>--|
B|:|--------------------------|--------------------------------|-------|
G|:|--5-5-5-5-5-5-5-5-5-5-5-5-|--------------------------------|-------|
D|:|--5-5-5-5-5-5-5-5-5-5-5-5-|-2-2-2-2-2-2-2-2-2-2-2-2--------|-------|
A|:|--3-3-3-3-3-3-3-3-3-3-3-3-|-2-2-2-2-2-2-2-2-2-2-2-2--------|-------|
E|:|--------------------------|-0-0-0-0-0-0-0-0-0-0-0-0--------|-------|
 |
[3]
e|:|----------10--------------|----------------------------------|
B|:|-12-------------10-12p10--|----------------------------------|
G|:|----12-12----12-----------|----------------------------------|
D|:|--------------------------|----12-------16----11h12----------|
A|:|-------------------------(x2)-----14-14----14-------14-------|(x2)
E|:|--------------------------|----------------------------------|

[1]
e|:|-----------------------------------|
B|:|-----------------------------------|
G|:|-----------------------------------|
D|:|-----------------------------------|
A|:|-----------------------------------|
E|:|-----------------------------------|


[1]
e|:|-----------------------------------|
B|:|-----------------------------------|
G|:|-----------------------------------|
D|:|-----------------------------------|
A|:|-----------------------------------|
E|:|-----------------------------------|
 |
[2]
e|:|-----------------------------------|
B|:|-----------------------------------|
G|:|-----------------------------------|
D|:|-----------------------------------|
A|:|-----------------------------------|
E|:|-----------------------------------|
 |
[3]
e|:|-----------------------------------|
B|:|-19--------------------------------|
G|:|----19-19--------------------------|
D|:|-----------------------------------|
A|:|-----------------------------------|
E|:|-----------------------------------|

[1]
e|:|-----------------------------------|
B|:|-----------------------------------|
G|:|-----------------------------------|
D|:|-----------------------------------|
A|:|-----------------------------------|
E|:|-----------------------------------|
 |
[2]
e|:|-----------------------------------|
B|:|-----------------------------------|
G|:|-----------------------------------|
D|:|-----------------------------------|
A|:|-----------------------------------|
E|:|-----------------------------------|
 |
[1]
e|:|-----------------------------------|
B|:|-----------------------------------|
G|:|-----------------------------------|
D|:|-----------------------------------|
A|:|-----------------------------------|
E|:|-----------------------------------|

            
            
Suggest correction
Creating personal tab
Creating personal tab
You can edit any tab online and save it as your Personal.

You can edit, replace or remove any tab part or add personal notes – all changes will be seen only by you.

Personal tabs can be accessed anytime from any device, even offline.
Learn more »
comments
print report bad tab
6 comments total. Showing first comments.
0 reply
Chuck Tuck 10 Nov 01, 2006 04:31 AM

Hey this song kicks, Hawthorne Heights is amazing, great tab, 5 stars.

0 reply
jwhalen 50 Nov 19, 2006 09:33 AM

confusing

0 reply
jwhalen 50 Nov 21, 2006 03:17 PM

nevermind it makes sense now 5 stars

guest
You may want to rate the tab now too:
select rating
Wanna post a correction for this tab? Suggest correction