Oops, an error
Loading. Please wait.

Light Sleeper tab

version 2
version 2

Whole song

28 views 1 this week
no commentswrite comment
1 2 3 4 5
3 more votes to show rating
add to favorites
×
Save as Personal and add changes to this tab that will be seen only by you. Learn more ›
×
You can save this tab as Personal to edit and correct it or add notes. All changes will be seen only by you. Learn more »
launch autoscroll
font size
0
reset
how to read this tab
guitar tuner
edit
Autoscroll
slow
fast
+/-
esc
set tempo
stop
Author
Difficulty
[Intro]

E|------------------------------------|----|-------------------------|
B|------------------------------------|----|-------------------------|
G|--------9--------9--------9-------9-|----|--------9--------9-------|
D|------------------------------------|3x--|-------------------------|
A|-----7--------7--------7--------7---|----|-----7--------7----------|
e|--9--------7--------5--------7------|----|--9--------7--------7~~--|


[Verse 1]

E|-------------------------------------|
B|-------------------------------------|
G|--6-666-6--2-222-2--4-4-4-4--2-2--4--|
D|--6-666-6--2-222-2--4-4-4-4--2-2--4--|4x
A|--4-444-4--0-000-0--2-2-2-2--0-0--2--|
e|-------------------------------------|
      ...      ...      .   .    .

E|----------------------|
B|----------------------|
G|--666666666--4444--5--|
D|--666666666--4444--5--|
A|----------------------|
e|----------------------|
    .........  ....  .


[Chorus]

E|---------------------------------------|--------------------------------------|
B|---------------------------------------|--------------------------------------|
G|--6-6-666--2-2-222--4-4-444-4-4-444----|-2~~~--2-x-2-x-2-x-2-x-2-x-2-x-2-x-2--|
D|--6-6-666--2-2-222--4-4-444-4-4-444-2x-|-2~~~--2-x-2-x-2-x-2-x-2-x-2-x-2-x-2--|
A|--4-4-444--0-0-000--2-2-222-2-2-222----|-0~~~--0-x-0-x-0-x-0-x-0-x-0-x-0-x-0--|
e|---------------------------------------|--------------------------------------|


[Verse 2]

E|-------------------------------------------------|----|----------------|
B|-------------------------------------------------|----|-----------5*~--|
G|--6-6-66666--2-2-22222--4-4-44444----------------|----|--66666666-5*~--|
D|--6-6-66666--2-2-22222--4-4-44444--7-7-777--4-4--|5x--|--66666666------|
A|--4-4-44444--0-0-00000--2-2-22222--7-7-777--4-4--|----|--44444444------|
e|-----------------------------------5-5-555--2-2--|----|----------------|
    . . .....  . . .....  . . .....  . . ...  . .


[Chorus]

E|---------------------------------------|
B|---------------------------------------|
G|--6-6-666--2-2-222--4-4-444-4-4-444----|
D|--6-6-666--2-2-222--4-4-444-4-4-444-2x-|
A|--4-4-444--0-0-000--2-2-222-2-2-222----|
e|---------------------------------------|


[Bridge]

E|-------------------------------------------------------------------------------|
B|-------------------------------------------------------------------------------|
G|--6-6-x---9/11--4-4-444-4-4-444--6-6-x--13131313131313--9/11--4-4-444-4-4-444--|
D|--6-6-x---x-x---4-4-444-4-4-444--6-6-x--xxxxxxxxxxxxx---x-x---4-4-444-4-4-444--|
A|--4-4-x---7/9---2-2-222-2-2-222--4-4-x--1111111111111---7/9---2-2-222-2-2-222--|
e|-------------------------------------------------------------------------------|


E|--------------------------|--------------------------------------|
B|--------------------------|--------------------------------------|
G|--2~-4~-6~--2~-4~-6~--66--|--2-2-2-2-2-2--4-4--6-6-6-6-6-6-6-6---|
D|--2~-4~-6~--2~-4~-6~--66--|--2-2-2-2-2-2--4-4--6-6-6-6-6-6-6-6-2x|
A|--0~-2~-4~--0~-2~-4~--44--|--0-0-0-0-0-0--2-2--4-4-4-4-4-4-4-4---|
e|--------------------------|--------------------------------------|
                        ..

E|----------------------------------|
B|----------------------------------|
G|--666666666666--22222222----------|
D|--666666666666--22222222--2222-2--|
A|--444444444444--00000000--2222-2--|
e|--------------------------0000-0--|
    ............  ........  ....


[Chorus]

E|---------------------------------------|---------|
B|---------------------------------------|---------|
G|--6-6-666--2-2-222--4-4-444-4-4-444----|--6~~~---|
D|--6-6-666--2-2-222--4-4-444-4-4-444-4x-|--6~~~---|
A|--4-4-444--0-0-000--2-2-222-2-2-222----|--4~~~---|
e|---------------------------------------|---------|


[Outro]

E|------------------------------------|---|----|
B|------------------------------------|---|----|
G|--------9--------9--------9-------9-|---|-6~-|
D|------------------------------------|3x-|-6~-|
A|-----7--------7--------7--------7---|---|-4~-|
e|--9--------7--------5--------7------|---|----|

************************************************

[x] = Mute/Stop
[.] = Palm Mute
[/] = Slide down
[*] = harmonic
[~] = Let Ring

************************************************

Sleep, sleep little darling
I swear I'm not trying to wear you out
I'm not trying to drag you down

When you fall asleep tonight
They'll be waiting for you
When you try to close your eyes
They'll try not to hate you
Sleep, sleep the night away
Act like nothings wrong
You know we're going down


[Chorus]

You are such a light sleeper
Count to ten and you're already up
We fall, we're in deeper
The nights gone as we open up our eyes

Nine, Ten, (Nine, Ten)
We'll never sleep again
We try (We Try)
We know we'll never win
At least (At Least)
We know we'll make it out alive
At least
We know we'll make it out this time


[Chorus]

You are such a light sleeper
Count to ten and you're already up
We fall, we're in deeper
The nights gone as we open up our eyes

We fall (WE FALL)
We know that we can make it now
We fall (WE FALL)
We know that we can break this down
(we can break this down)

We hear what you're saying (saying)
Not enough so we keep playing
This game is what you make it (you make it)
One chance so why not take it


[Chorus]

You are such a light sleeper
Count to ten and you're already up
We fall, we're in deeper
The nights gone as we open up our eyes

Such a light sleeper
Light sleeper
Such a light sleeper

Sleep, sleep little darling
I swear I'm not trying to wear you out
I'm not trying to drag you down

            
            
Suggest correction
Creating personal tab
Creating personal tab
You can edit any tab online and save it as your Personal.

You can edit, replace or remove any tab part or add personal notes – all changes will be seen only by you.

Personal tabs can be accessed anytime from any device, even offline.
Learn more »
Give kudos to tab author, rate the tab!
1 2 3 4 5
comments
print report bad tab
guest
You may want to rate the tab now too:
select rating
Wanna post a correction for this tab? Suggest correction