Oops, an error
Loading. Please wait.

Niki Fm Tab

version 6
version 6
7,985 views 3 this week
8 commentsread comments
1 2 3 4 5
accurate
x 11
add to favorites
launch autoscroll
font size
0
reset
how to read this tab
guitar tuner
Tab Pro tools
  • play this tab
  • loop segment
  • change instrument
  • show fretboard
  • metronome
×
Best way to learn
"Niki Fm"
Autoscroll
slow
fast
+/-
esc
set tempo
stop
Difficulty
intermediate
Song: Niki FM
Artist: Hawthorne Heights
Album: The Silence in Black and White
Tuning: All guitars in Standard (EADGBe)

Guitar 1: Casey (Distorted)
Guitar 2: Micah (Distorted)
Guitar 3: JT    (Distorted)
Guitar 4: Micah (Clean)

Gutiar 4 x2

e-------------|
B-------------|
G-------------|
D-------------|
A-4--9-11-0-2-|
E-------------|

Guitar 1

e-------|
B-------|
G-6---2-|
D-6-2-2-|
A-4-2-0-|
E---0---|

Guitar 1 x3

e---------------------------------------|
B---------------------------------------|
G-66-66-----66-66-----22-22-----22-22-4-|
D-66-66-----66-66-----22-22-----22-22-4-| Dont play end note on 3rd time.
A-44-44-----44-44-----00-00-----00-00-2-|
E---------------------------------------|

Guitar 2

e--------0---------0----------0--------0-|
B-------4-4-------4-4--------4-4------4--|
G------4---4-----4---4------4---4----4---|
D----------------------------------------|
A----------------------------------------|
E----------------------------------------|

Guitar 1 x2

e--------9-0-7-0-|
B-------5--------|
G---8b-----------|
D--6---6---------|
A-4---4----------|
E----------------|

Guitars 1,2,3

e-----------------------|
B-----------------------|
G-6666-6666-6-4-2-4-2-4-|
D-6666-6666-6-4-2-4-2-4-|
A-4444-4444-4-2-0-2-0-2-|
E-----------------------|

Guitar 1

e-------------------------------------|
B-------------------------------------|
G-66-66-----66-66-----22-22-----22-22-|
D-66-66-----66-66-----22-22-----22-22-|
A-44-44-----44-44-----00-00-----00-00-|
E-------------------------------------|

Guitar 2

e--------0---------0----------0--------0-|
B-------4-4-------4-4--------4-4------4--|
G------4---4-----4---4------4---4----4---|
D----------------------------------------|
A----------------------------------------|
E----------------------------------------|

Guitar 1

e---------------------------------------|
B---------------------------------------|
G-66-66-----66-66-----22-22-----22-22-4-|
D-66-66-----66-66-----22-22-----22-22-4-|
A-44-44-----44-44-----00-00-----00-00-2-|
E---------------------------------------|

Guitar 2

e--------0---------0----------0--------0-|
B-------4-4-------4-4--------4-4------4--|
G------4---4-----4---4------4---4----4---|
D----------------------------------------|
A----------------------------------------|
E----------------------------------------|

Guitar 1

e---------------------------------------|
B---------------------------------------|
G-66-66-----66-66-----22-22-----22-22-4-|
D-66-66-----66-66-----22-22-----22-22-4-|
A-44-44-----44-44-----00-00-----00-00-2-|
E---------------------------------------|

Guitar 2

e--------0---------0------------------|
B-------4-4-------4-4-----------------|
G------4---4-----4---4----------------|
D-------------------------------------|
A-------------------------------------|
E-------------------------------------|

Guitar 1

e---------------------------------------|
B---------------------------------------|
G-66-66-----66-66-----22-22-----22-22-4-|
D-66-66-----66-66-----22-22-----22-22-4-|
A-44-44-----44-44-----00-00-----00-00-2-|
E---------------------------------------|

Guitar 2

e--------9---------9----------9--------9-|
B-------8-8-------8-8--------8-8------8--|
G------7---7-----7---7------7---7----7---|
D----------------------------------------|
A----------------------------------------|
E----------------------------------------|

Guitar 1

e--------9-0-7-0-|
B-------5--------|
G---8b-----------|
D--6---6---------|
A-4---4----------|
E----------------|

e---------|
B---------|
G---8b----|
D--6----7-|
A-4----7--|
E-----5---|

Guitars 1,2,3

e------------------------------|
B------------------------------|
G-6666-6666-6-4-2-4-2-4--6---2-|
D-6666-6666-6-4-2-4-2-4--6-2-2-|
A-4444-4444-4-2-0-2-0-2--4-2-0-|
E--------------------------0---|

e-----------------------|
B-----------------------|
G-6666-6666-6-4-2-4-2-4-|
D-6666-6666-6-4-2-4-2-4-|
A-4444-4444-4-2-0-2-0-2-|
E-----------------------|

Guitar 1 Tremolo picked

e----------------------------------------------|
B----------------------------------------------|
G----------------------------------------------|
D----------------------------------------------|
A-44444444-66666666-77777777-00000000-22222222-|
E----------------------------------------------|

e----------------------------------------------|
B----------------------------------------------|
G----------------------------------------------|
D----------------------------------------------|
A-44444444-66666666-77777777-00000000-22222222-|
E----------------------------------------------|

Guitar 2

e----
B----
G----
D-6~-
A-6~-
E-4~-

Guitars 1,3

e---------------------------------|
B---------------------------------|
G-66----66---44X22----44----------|
D-66-22-66-2-44X22-22-44-22-------|    X4
A-44-22-44-2-22X00-22-22-22-------|
E----00----0-------00----00-------|
PM   ..    .

e-12-12-11-12-7-7-|
B-----------------|
G---9--9--9--9-9--|
D-----------------|    Played 4x, played twice over the riff
A-----------------|    above, twice as part of outro
E-----------------|

Guitar 4

e-------------|
B-------------|
G-------------|
D-------------|         Played 4x, played twice over the outro riff
A-4--9-11-0-2-|         above, and twice as outro ending, let last
E-------------|         note ring out.
comments
print report bad tab
8 comments total. Showing first comments.
0 reply
blink182ndtbs wrote on January 21 2006, 08:13 am

very good tab .. but i think theres more notes being played on the outro thingy ..like instead of 12x9xxx its like 12-0-9xxx .. but other than that awesome job tabbin this song .. PROPZ

+1 reply
NoideaDrivethru wrote on January 23 2006, 03:45 pm

Alright, the intro is a little off. It should be:

e|-----------------|
B|-----------------|
G|-----------------|
D|--6--7--9--6-----|
A|--4--6--7--0--9--|
E|--------------7--|

Other than that, I think it's alright. Good job bro.

0 reply
NoideaDrivethru wrote on January 23 2006, 03:55 pm

One more minor correction...

e|----------------------------------|
B|----------------------------------|
G|------8--------9---8--------8-----|
D|---6---------9---9---9----6-------|
A|-4---------7------------4------7--|
E|---------5---------------------5--|

That should be it.

I want to post or [tab]
guest
You may want to rate the tab now too:
select rating
Please do not post tabs as comments. Select "correction" instead!