Oops, an error
Loading. Please wait.

Niki Fm tab

version 8
version 8
2,506 views 3 this week
1 commentread comment
1 2 3 4 5
1 last vote to show rating
add to favorites
×
Save as Personal and add changes to this tab that will be seen only by you. Learn more ›
×
You can save this tab as Personal to edit and correct it or add notes. All changes will be seen only by you. Learn more »
launch autoscroll
font size
0
reset
how to read this tab
guitar tuner
edit
Autoscroll
slow
fast
+/-
esc
set tempo
stop
Author
Difficulty
Song: Niki FM
Track: 3
Artist: Hawthorne Heights
Album: The Silence In Black And White
Tabbed by: Roberto Aleman
Email: Roberto0331@gmail.com

Tuning: Standard (EADGBe)
Distortion Level: Medium

Notes: Although this song requires and sounds far greater with 2 guitars, this is set up 
one. Play the entire song with distortion, preferably a medium setting so that the part 
would normally be without distortion can be understood.

Intro
e|-----|-------|-----|-----|-----|-------|-----|-----|-------|-----------|
B|-----|-------|-----|-----|-----|-------|-----|-----|-------|-----------|
G|-----|-------|-----|-----|-----|-------|-----|-----|(pause)|--6-----2--|
D|--6--|--7-9--|--6--|--7--|--6--|--7-9--|--6--|--7--|(drums)|--6--2--2--|
A|-----|-------|-----|-----|-----|-------|-----|-----|-------|--4--2--0--|
E|-----|-------|-----|-----|-----|-------|-----|-----|-------|-----0-----|

Verse
    PM PM PM PM                PM PM PM PM
e|--------------|-----0-----|--------------|-----0-----|
B|--------------|----4-4----|--------------|----4-4----|
G|--6--6--6--6--|--4-----4--|--6--6--6--6--|--4-----4--|
D|--6--6--6--6--|-----------|--6--6--6--6--|-----------|
A|--4--4--4--4--|-----------|--4--4--4--4--|-----------|
E|--------------|-----------|--------------|-----------|

    PM PM PM PM                PM PM PM PM
e|--------------|-----0-----|--------------|-----0-----|
B|--------------|----4-4----|--------------|----4-4----|
G|--2--2--2--2--|--4-----4--|--2--2--2--2--|--4-----4--|
D|--2--2--2--2--|-----------|--2--2--2--2--|--------4--|
A|--0--0--0--0--|-----------|--0--0--0--0--|--------2--|
E|--------------|-----------|--------------|-----------|

    PM PM PM PM                PM PM PM PM
e|--------------|-----0-----|--------------|-----0-----|
B|--------------|----4-4----|--------------|----4-4----|
G|--6--6--6--6--|--4-----4--|--6--6--6--6--|--4-----4--|
D|--6--6--6--6--|-----------|--6--6--6--6--|-----------|
A|--4--4--4--4--|-----------|--4--4--4--4--|-----------|
E|--------------|-----------|--------------|-----------|

    PM PM PM PM                PM PM PM PM
e|--------------|-----0-----|--------------|-----0-----|
B|--------------|----4-4----|--------------|----4-4----|
G|--2--2--2--2--|--4-----4--|--2--2--2--2--|--4-----4--|
D|--2--2--2--2--|-----------|--2--2--2--2--|--------4--|
A|--0--0--0--0--|-----------|--0--0--0--0--|--------2--|
E|--------------|-----------|--------------|-----------|

    PM PM PM PM                PM PM PM PM
e|--------------|-----7-----|--------------|-----7-----|
B|--------------|----9-9----|--------------|----9-9----|
G|--6--6--6--6--|--9-----9--|--6--6--6--6--|--9-----9--|
D|--6--6--6--6--|-----------|--6--6--6--6--|-----------|
A|--4--4--4--4--|-----------|--4--4--4--4--|-----------|
E|--------------|-----------|--------------|-----------|

    PM PM PM PM                PM PM PM PM
e|--------------|-----7-----|--------------|-----7-----|
B|--------------|----9-9----|--------------|----9-9----|
G|--2--2--2--2--|--9-----9--|--2--2--2--2--|--9-----9--|
D|--2--2--2--2--|-----------|--2--2--2--2--|-----------|
A|--0--0--0--0--|-----------|--0--0--0--0--|-----------|
E|--------------|-----------|--------------|-----------|

Pre-Chorus
e|---------|-------|----------|--9---7----|---------|-------|
B|------4--|-------|----------|-----------|------4--|-------|
G|---------|(pause)|-----8\9--|----9---9--|---------|(pause)|
D|----6----|-------|----------|-----------|----6----|-------|
A|--4------|-------|--0-------|-----------|--4------|-------|
E|---------|-------|----------|-----------|---------|-------|

e|------------|--9---7----|
B|------------|-----------|
G|-------8\9--|----9---9--|
D|----2-------|-----------|
A|--0---------|-----------|
E|------------|-----------|

Chorus
                                             PM
e|-----------|---------------------|---------------|
B|-----------|---------------------|---------------|
G|--6-----2--|--6--6--6--6---6--6--|--6--6------4--|
D|--6--2--2--|--6--6--6--6---6--6--|--6--6---2--4--|
A|--4--2--0--|--4--4--4--4---4--4--|--4--4---2--2--|
E|-----0-----|---------------------|---------0-----|

e|--7-----4--|---------|--7-----4--|---------|
B|----5------|--5---5--|----5------|--5---5--|
G|------6----|----6----|------6----|----6----|
D|-----------|---------|-----------|---------|
A|-----------|---------|-----------|---------|
E|-----------|---------|-----------|---------|

Verse
    PM PM PM PM                PM PM PM PM
e|--------------|-----0-----|--------------|-----0-----|
B|--------------|----4-4----|--------------|----4-4----|
G|--6--6--6--6--|--4-----4--|--6--6--6--6--|--4-----4--|
D|--6--6--6--6--|-----------|--6--6--6--6--|-----------|
A|--4--4--4--4--|-----------|--4--4--4--4--|-----------|
E|--------------|-----------|--------------|-----------|

    PM PM PM PM                PM PM PM PM
e|--------------|-----0-----|--------------|-----0-----|
B|--------------|----4-4----|--------------|----4-4----|
G|--2--2--2--2--|--4-----4--|--2--2--2--2--|--4-----4--|
D|--2--2--2--2--|-----------|--2--2--2--2--|--------4--|
A|--0--0--0--0--|-----------|--0--0--0--0--|--------2--|
E|--------------|-----------|--------------|-----------|

    PM PM PM PM                PM PM PM PM
e|--------------|-----0-----|--------------|-----0-----|
B|--------------|----4-4----|--------------|----4-4----|
G|--6--6--6--6--|--4-----4--|--6--6--6--6--|--4-----4--|
D|--6--6--6--6--|-----------|--6--6--6--6--|-----------|
A|--4--4--4--4--|-----------|--4--4--4--4--|-----------|
E|--------------|-----------|--------------|-----------|

    PM PM PM PM                PM PM PM PM
e|--------------|-----0-----|--------------|-----0-----|
B|--------------|----4-4----|--------------|----4-4----|
G|--2--2--2--2--|--4-----4--|--2--2--2--2--|--4-----4--|
D|--2--2--2--2--|-----------|--2--2--2--2--|--------4--|
A|--0--0--0--0--|-----------|--0--0--0--0--|--------2--|
E|--------------|-----------|--------------|-----------|

    PM PM PM PM                PM PM PM PM
e|--------------|-----7-----|--------------|-----7-----|
B|--------------|----9-9----|--------------|----9-9----|
G|--6--6--6--6--|--9-----9--|--6--6--6--6--|--9-----9--|
D|--6--6--6--6--|-----------|--6--6--6--6--|-----------|
A|--4--4--4--4--|-----------|--4--4--4--4--|-----------|
E|--------------|-----------|--------------|-----------|

    PM PM PM PM            PM PM PM PM
e|--------------|-------|--------------|-----|
B|--------------|-------|--------------|-----|
G|--2--2--2--2--|(pause)|--2--2--2--2--|--4--|
D|--2--2--2--2--|-------|--2--2--2--2--|--4--|
A|--0--0--0--0--|-------|--0--0--0--0--|--2--|
E|--------------|-------|--------------|-----|

    PM PM PM PM                PM PM PM PM
e|--------------|-----7-----|--------------|-----7-----|
B|--------------|----9-9----|--------------|----9-9----|
G|--6--6--6--6--|--9-----9--|--6--6--6--6--|--9-----9--|
D|--6--6--6--6--|-----------|--6--6--6--6--|-----------|
A|--4--4--4--4--|-----------|--4--4--4--4--|-----------|
E|--------------|-----------|--------------|-----------|

    PM PM PM PM                PM PM PM PM
e|--------------|-----7-----|--------------|-----7-----|
B|--------------|----9-9----|--------------|----9-9----|
G|--2--2--2--2--|--9-----9--|--2--2--2--2--|--9-----9--|
D|--2--2--2--2--|-----------|--2--2--2--2--|-----------|
A|--0--0--0--0--|-----------|--0--0--0--0--|-----------|
E|--------------|-----------|--------------|-----------|

Pre-Chorus
e|---------|-------|----------|--9---7----|
B|------4--|-------|----------|-----------|
G|---------|(pause)|-----8\9--|----9---9--|
D|----6----|-------|----------|-----------|
A|--4------|-------|--0-------|-----------|
E|---------|-------|----------|-----------|

Chorus
                                             PM
e|-----------|---------------------|---------------|
B|-----------|---------------------|---------------|
G|--6-----2--|--6--6--6--6---6--6--|--6--6------4--|
D|--6--2--2--|--6--6--6--6---6--6--|--6--6---2--4--|
A|--4--2--0--|--4--4--4--4---4--4--|--4--4---2--2--|
E|-----0-----|---------------------|---------0-----|

e|--7-----4--|---------|--7-----4--|---------|
B|----5------|--5---5--|----5------|--5---5--|
G|------6----|----6----|------6----|----6----|
D|-----------|---------|-----------|---------|
A|-----------|---------|-----------|---------|
E|-----------|---------|-----------|---------|

                                             PM
e|-----------|-------|---------------------|---------------|
B|-----------|-------|---------------------|---------------|
G|--6-----2--|(pause)|--6--6--6--6---6--6--|--6--6------4--|
D|--6--2--2--|-------|--6--6--6--6---6--6--|--6--6---2--4--|
A|--4--2--0--|-------|--4--4--4--4---4--4--|--4--4---2--2--|
E|-----0-----|-------|---------------------|---------0-----|

e|--7-----4--|---------|--7-----4--|---------|
B|----5------|--5---5--|----5------|--5---5--|
G|------6----|----6----|------6----|----6----|
D|-----------|---------|-----------|---------|
A|-----------|---------|-----------|---------|
E|-----------|---------|-----------|---------|

Bridge
e|-----------------------------------|
B|-----------------------------------|
G|-----------------------------------|
D|-----------------------------------|
A|--4-4-4-4-4-4-4-4-4-4-4-4-4-4-4-4--|
E|-----------------------------------|

e|-----------------------------------|
B|-----------------------------------|
G|-----------------------------------|
D|-----------------------------------|
A|--6-6-6-6-6-6-6-6-7-7-7-7-7-7-7-7--|
E|-----------------------------------|

e|-----------------------------------|
B|-----------------------------------|
G|-----------------------------------|
D|-----------------------------------|
A|--0-0-0-0-0-0-0-0-0-0-0-0-0-0-0-0--|
E|-----------------------------------|

e|-----------------------------------|
B|-----------------------------------|
G|-----------------------------------|
D|-----------------------------------|
A|--2-2-2-2-2-2-2-2-2-2-2-2-2-2-2-2--|
E|-----------------------------------|

e|-----------------------------------|
B|-----------------------------------|
G|-----------------------------------|
D|-----------------------------------|
A|--4-4-4-4-4-4-4-4-4-4-4-4-4-4-4-4--|
E|-----------------------------------|

e|-----------------------------------|
B|-----------------------------------|
G|-----------------------------------|
D|-----------------------------------|
A|--6-6-6-6-6-6-6-6-7-7-7-7-7-7-7-7--|
E|-----------------------------------|

e|-----------------------------------|
B|-----------------------------------|
G|-----------------------------------|
D|-----------------------------------|
A|--0-0-0-0-0-0-0-0-0-0-0-0-0-0-0-0--|
E|-----------------------------------|

e|-----------------------------------|
B|-----------------------------------|
G|-----------------------------------|
D|-----------------------------------|
A|--2-2-2-2-2-2-2-2-2-2-2-2-2-2-2-2--|
E|-----------------------------------|

e|-----|---------|-----|-----|-----|---------|-----|-----|-------|-------|
B|-----|---------|-----|-----|-----|---------|-----|-----|-------|-------|
G|-----|---------|-----|-----|-----|---------|-----|-----|(pause)|(pause)|
D|--2--|--4---6--|--2--|--4--|--2--|--4---6--|--2--|--4--|-------|-------|
A|-----|---------|-----|-----|-----|---------|-----|-----|-------|-------|
E|-----|---------|-----|-----|-----|---------|-----|-----|-------|-------|

Breakdown
          PM PM          PM       PM          PM PM          PM PM
e|--------------|--------------------|--------------|--------------|
B|--------------|--------------------|--------------|--------------|
G|--6--6--------|--6--6-----4--4-----|--2--2--------|--4--4--------|
D|--6--6--2--2--|--6--6--2--4--4--2--|--2--2--2--2--|--4--4--2--2--|
A|--4--4--2--2--|--4--4--2--2--2--2--|--0--0--2--2--|--2--2--2--2--|
E|--------0--0--|--------0--------0--|--------0--0--|--------0--0--|

          PM PM          PM       PM          PM PM          PM PM
e|--------------|--------------------|--------------|--------------|
B|--------------|--------------------|--------------|--------------|
G|--6--6--------|--6--6-----4--4-----|--2--2--------|--4--4--------|
D|--6--6--2--2--|--6--6--2--4--4--2--|--2--2--2--2--|--4--4--2--2--|
A|--4--4--2--2--|--4--4--2--2--2--2--|--0--0--2--2--|--2--2--2--2--|
E|--------0--0--|--------0--------0--|--------0--0--|--------0--0--|

e|--12------12-----|--11------12-----|--12------12-----|-----------------|
B|----9-------9----|----9-------9----|----9-------9----|-----------------|
G|------9-------9--|------9-------9--|------9-------9--|-----------------|
D|-----------------|-----------------|-----------------|------8---9-8----|
A|-----------------|-----------------|-----------------|--7\9---9-----9--|
E|-----------------|-----------------|-----------------|-----------------|

e|--12------12-----|--11------12-----|--12------12-----|-----------------|
B|----9-------9----|----9-------9----|----9-------9----|-----------------|
G|------9-------9--|------9-------9--|------9-------9--|-----------------|
D|-----------------|-----------------|-----------------|------8---9-8----|
A|-----------------|-----------------|-----------------|--7\9---9-----9--|
E|-----------------|-----------------|-----------------|-----------------|

e|--12------12-----|--11------12-----|--12------12-----|-----------------|
B|----9-------9----|----9-------9----|----9-------9----|-----------------|
G|------9-------9--|------9-------9--|------9-------9--|-----------------|
D|-----------------|-----------------|-----------------|------8---9-8----|
A|-----------------|-----------------|-----------------|--7\9---9-----9--|
E|-----------------|-----------------|-----------------|-----------------|

Ending
e|--12------12-----|--11------12-----|--12------12-----|-----------------|
B|----9-------9----|----9-------9----|----9-------9----|-----------------|
G|------9-------9--|------9-------9--|------9-------9--|-----------------|
D|-----------------|-----------------|-----------------|------8---9-8----|
A|-----------------|-----------------|-----------------|--7\9---9-----9--|
E|-----------------|-----------------|-----------------|-----------------|

e|--12------12-----|--11------12-----|--12------12-----|-----------------|
B|----9-------9----|----9-------9----|----9-------9----|-----------------|
G|------9-------9--|------9-------9--|------9-------9--|-----------------|
D|-----------------|-----------------|-----------------|------8---9-8----|
A|-----------------|-----------------|-----------------|--7\9---9-----9--|
E|-----------------|-----------------|-----------------|-----------------|

e|-----|------|------|------|
B|-----|------|------|------|
G|-----|(fade)|(fade)|(fade)|
D|--9--|------|------|------|
A|-----|------|------|------|
E|-----|------|------|------|


======================
Tablature Explanation
======================
| /  Slide up
| \  Slide down
| PM Palm mute
| h  Hammer-on
| p  Pull-off
| ~  Vibrato
| +  Harmonic
| x  Mute note
======================

            
            
Suggest correction
Creating personal tab
Creating personal tab
You can edit any tab online and save it as your Personal.

You can edit, replace or remove any tab part or add personal notes – all changes will be seen only by you.

Personal tabs can be accessed anytime from any device, even offline.
Learn more »
Give kudos to tab author, rate the tab!
1 2 3 4 5
comments
print report bad tab
1 comment total.
0 reply
musicidot 31 Mar 11, 2008 06:35 AM

the ending part was pretty wrong,
e|--12------12-----|--11------12-----|---7------7-----|-----------------|
B|----0-------0----|----0-------0----|----0-------0----|-----------------|
G|------9-------9--|------9-------9--|------6-------6--|-----------------|
D|-----------------|-----------------|-----------------|------8---9-8----|
A|-----------------|-----------------|-----------------|--7\9---9-----9--|
E|-----------------|-----------------|-----------------|-----------------|

guest
You may want to rate the tab now too:
select rating
Wanna post a correction for this tab? Suggest correction