Oops, an error
Loading. Please wait.

Ohio Is For Lovers Tab

version 1
version 1

Whole song

Interactive

101,337 views 69 this week
16 commentsread comments
1 2 3 4 5
x 36
add to favorites
launch autoscroll
font size
0
reset
how to read this tab
guitar tuner
×
Best way to learn
"Ohio Is For Lovers"
Autoscroll
slow
fast
+/-
esc
set tempo
stop
Hawthorne Heights------Ohio Is For Lovers
TABED BY: Ethan Hartzell (Save Yourself - for life..we'll be famous)

[Intro]

GUITAR 1 (rhythem)
e|----------------------------------------------------|
B|----------------------------------------------------|
G|----------------------------------------------- x 2-|
D|----------------4----------4------------------------|
A|---------2----2---------2---2-----------------------|
E|------4---4----------4------------------------------|
                                                      |(x4)
e|----------------------------------------------------|
B|----------------------------------------------------|
G|----------------------------------------------- x 2-|
D|----------------4----------4------------------------|
A|---------2----2---------2---2-----------------------|
E|------0-----0---------0-----------------------------|

GUITAR 2 (lead) comes in after rythem plays 2 times

e|------------------------------------|
B|------------------------------------|
G|-------------8------6---------------|
D|------5h6-----5h6-------------- x 2-|
A|------------------------------------|
E|------------------------------------|
                                      |(x2)
e|------------------------------------|
B|------------------------------------|
G|-------6p4--4---6p4-----------------|
D|------------------------------- x 2-|
A|------------------------------------|
E|------------------------------------|

[Pre-Chorus]
guitar 1
e|------------------------------------------------------------------------|
B|------------------------------------------------------------------------|
G|------------666666888888------------------------------------------------|
D|---4-6-6----xxxxxxxxxxxx------------------------------------------------|
A|---4-6-6----444444666666---22222222222222-------------------------------|
E|---2-4-4------------------ 00000000000000-------------------------------|(x2)

[Chorus]

e|-----------------------------------------------------------------------------|
B|-----------------------------------------------------------------------------|
G|-----------------------------------------------------------------------------|
D|----6666666--4--22-22222222--4------------------------------------------ x 2-|
A|----6666666--4--22-22222222--4-----------------------------------------------|
E|----4444444--2--00-00000000--2-----------------------------------------------|
                     ********

e|--------------------------------------------------------------------------------------|
B|--------------------------------------------------------------------------------------|
G|--------------------------------------------------------------------------------------|
D|----66--44------66-66-66-6-66-66-66-6---------22-22-22-4-22-22-22-4-------------------|
A|----66--44------66-66-66-6-66-66-66-6---------22-22-22-4-22-22-22-4-------------------|
E|----44--22------44-44-44-4-44-44-44-4---------00-00-00-2-00-00-00-2-------------------|
                        **         **                 **         **
[Verse]

e|------------------------------------------------------------------------------|
B|------------------------------------------------------------------------------|
G|------------------------------------------------------------------------------|
D|----6666666666666666--44-666666666666666-44--22222222222222-22-0000000000000--|
A|----6666666666666666--44-666666666666666-44--22222222222222-22-0000000000000--|
E|----4444444444444444--22-444444444444444-22--00000000000000-22-0000000000000--|(x2)
      ****************  **  ************** **   ************* **  ************

[Pre-Chorus]

e|--------------------------------------------------|
B|--------------------------------------------------|
G|------------666666888888--------------------------|
D|---4-6-6----xxxxxxxxxxxx--------------------------|
A|---4-6-6----444444666666---22222222222222---------|
E|---2-4-4-------------------00000000000000---------|(x2)

[Chorus]

e|------------------------------------------------------------------|
B|------------------------------------------------------------------|
G|------------------------------------------------------------------|
D|----6666666--4--22-22222222--4--------------------------------x 2-|
A|----6666666--4--22-22222222--4------------------------------------|
E|----4444444--2--00-00000000--2------------------------------------|
                     ********

e|-------------------------------------------------------------------------------------|
B|-------------------------------------------------------------------------------------|
G|-------------------------------------------------------------------------------------|
D|----66-xx-44-xx-----66-66-66-6-66-66-66-6---------22-22-22-4-22-22-22-4--------- x 2-|
A|----66-xx-44-xx-----66-66-66-6-66-66-66-6---------22-22-22-4-22-22-22-4--------------|
E|----44-xx-22-xx-----44-44-44-4-44-44-44-4---------00-00-00-2-00-00-00-2--------------|
                            **         **                 **         **
[Verse/Outro]

e|-------------------------------------------------------------|
B|-------------------------------------------------------------|
G|---------4-----------4---------------4-----4-----------------|
D|---------4-----------4---------------4-----4------------ x 2-|
A|-------------------------------------------------------------|
E|------4-----2----4----------2----0-----0---------------------|

[Pre-Chorus]

e|--------------------------------------------------------|
B|--------------------------------------------------------|
G|------------666666888888--------------------------------|
D|---4-6-6----xxxxxxxxxxxx--------------------------------|
A|---4-6-6----444444666666---22222222222222---------------|
E|---2-4-4-------------------00000000000000---------------|(x2)

[Chorus]

e|---------------------------------------------------------------------------|
B|---------------------------------------------------------------------------|
G|---------------------------------------------------------------------------|
D|----6666666--4--22-22222222--4--------------------------------- x 2--------|
A|----6666666--4--22-22222222--4---------------------------------------------|
E|----4444444--2--00-00000000--2---------------------------------------------|
                     ********

e|-----------------------------------------------------------------------------------------|
B|-----------------------------------------------------------------------------------------|
G|-----------------------------------------------------------------------------------------|
D|----66-xx-44-xx-----66-66-66-6-66-66-66-6---------22-22-22-4-22-22-22-4------------ x 2--|
A|----66-xx-44-xx-----66-66-66-6-66-66-66-6---------22-22-22-4-22-22-22-4------------------|
E|----44-xx-22-xx-----44-44-44-4-44-44-44-4---------00-00-00-2-00-00-00-2------------------|
                            **         **                 **         **

GUITAR 2
FOR CHORUS PLAY during the second time he plays it (just listen and you'll figure it out)

e|-7p6-7p6---7p6-7p6---7p6--9---------------------------------------------|
B|--------------7-------------7-------------------------------------------|
G|------------------------------------------------------------------- x 2-|
D|------------------------------------------------------------------------|
A|------------------------------------------------------------------------|
E|------------------------------------------------------------------------|

I'm almost 100% sure that this is right...so good luck


************************************

| h  Hammer-on
| p  Pull-off
| *  p.m

************************************
Suggest correction
comments
print report bad tab
16 comments total. Showing first comments.
-1 reply
orcutt989 70 Jul 31, 2004 08:00 PM

Terrible tab. 100% correct my ass. The lead for the beginning is totally wrong, it goes like this.


e|------------------------------------|
b|------------------------------------|
g|-------------8------6---------------|
d|------4h6-----4h6-------------- x 2-|
a|------------------------------------|
e|------------------------------------|
X2
e|------------------------------------|
b|------------------------------------|
g|-------6p4--4---6p4-----------------|
d|------------------------------- x 2-|
a|------------------------------------|
e|------------------------------------|


And then the second part of the Chorus goes like this.

e|-------------------------------------------------------------------|
b|-------------------------------------------------------------------|
g|-------------------------------------------------------------------|
d|----66--44------66-66-66-4-66-66-66-4---------22-22-22-4-22-22-22-4|
a|----66--44------66-66-66-4-66-66-66-4---------22-22-22-4-22-22-22-4|
e|----44--22------44-44-44-2-44-44-44-2---------00-00-00-2-00-00-00-2|
** * ** **


And there are many more leads and rythms that you missed, congratulations on a terrible tab.

0 reply
orcutt989 70 Jul 31, 2004 08:00 PM

disregard the stars

0 reply
orcutt989 70 Jul 31, 2004 08:00 PM

And the verse after the 1st chorus is terrible, that isnt even close. There are 2 guitar parts for that, one playing the chorus chords muted, and then other guitar playing something else. If anyone can actually tab it correctly, feel free.

guest
You may want to rate the tab now too:
select rating
Wanna post a correction for this tab? Suggest correction