Oops, an error
Loading. Please wait.

Ohio Is For Lovers ukulele

version 2
version 2

Whole song

Interactive

488 views 1 this week
no commentswrite comment
1 2 3 4 5
3 more votes to show rating
add to favorites
×
Save as Personal and add changes to this tab that will be seen only by you. Learn more ›
×
You can save this tab as Personal to edit and correct it or add notes. All changes will be seen only by you. Learn more »
launch autoscroll
font size
0
reset
transpose
0
reset
display chords
guitar tuner
edit
Autoscroll
slow
fast
+/-
esc
set tempo
stop
Strumming
There is no strumming pattern for this song yet. and get +5 IQ
Hawthorne Heights
Ohio Is For Lovers
The Silence Of Black In White
2004
Submitted by: paramore_fans@yahoo.com

This is 100% correct!!! Other versions of this tab here is wrong!!! Trust Me

Tuning: Standard EADGBe

Chords used:
G#m7 - 424xxx
F#3 -  244xxx
E9 -   024xxx
G#m -  466444
F# -   244322
E -    022100


Intro: G#m7-F#3 (x2) E9-F#4 (x2)

e|--------------------------|
B|--------------------------|
G|--------------------------|
D|-----------4----------4---| x2
A|----2----2---------2---2--|
E|-4---4----------2---------|

e|--------------------------|
B|--------------------------|
G|--------------------------|
D|-----------4----------4---| x2
A|----2----2---------2---2--|
E|-0-----0---------2--------|


Verse 1:
G#m7     F#3
Hey there
G#m7      F#3 E9             F#3
   I know it's   hard to feel
E9                     F#3
  like I don't care at all
G#m7                F#3     G#m7
  Where you are and how you feel
                     F#3      E9
Put these lights off as these wheels
     F#3     E9                           F#3
keep rolling on and on (and on and on and on...)
G#m7                   F#3       G#m7
  Slow things down or speed them up
              F#3     E9               F#3
Not enough or way too much (and on and on and on...)
        E9                F#3
How are you when I'm gone?


Chorus:
G#m                         E
  And I can't make it on my own
                        F# G#m
(And I can't make it on my own)
                        E
Because my heart is in Ohio
G#m                             E
  So cut my wrists and black my eyes
                               F# G#m
Growl: Cut my wrists and black my eyes
                       E           F#
So I can fall asleep tonight or die
E             F#
  Because you kill me


Post Chorus:
G#m
  You know you do
    F#      G#m
You kill me well
                    F#    E
You like it too and I can tell
                 F#
You never stop until
E                    F#
  my final breath is gone


Verse 2: Palm muted
G#m             F#         G#m
  Spare me just three last words
               F#      E
I love you is all she heard
              F#
I'll wait for you
E                     F#
  but I can't wait forever
(Repeat)


(Repeat Chorus and Post Chorus twice)


While doing part of 2nd turn of Post chorus
e|-7p6-7p6---7p6---7p6---7p6--9---7p6-7p6---7p6---7p6---7p6--9---7p6-7p6-|
B|---------------7--------------7---------------7--------------7---------|
G|-----------------------------------------------------------------------|
D|-----------------------------------------------------------------------|
A|-----------------------------------------------------------------------|
E|-----------------------------------------------------------------------|


Interlude: G#m7-F#3 (x2) E9-F#4 (x2)

Silence:
e|------------------------------------------------|
B|------------------------------------------------|
G|--------4-----------4---------------4---------4-|
D|--------4-----------4---------------4---------4-|
A|------------------------------------------------|
E|-2---4-----2----4----------2----0-------2--0----|


Bridge:
G#m7                   F#3      G#m7
  So cut my wrists and black my eyes (YOU!)
   F#3   E9
My final breath is gone (KILL!)
(ME!)
                F#3    E9           F#3
So i can fall asleep tonight (WELL!)


(Repeat Chorus and Post Chorus twice)

            
            
Suggest correction
Creating personal tab
Creating personal tab
You can edit any tab online and save it as your Personal.

You can edit, replace or remove any tab part or add personal notes – all changes will be seen only by you.

Personal tabs can be accessed anytime from any device, even offline.
Learn more »
Give kudos to tab author, rate the tab!
1 2 3 4 5
comments
print report bad tab
guest
Wanna post a correction for this tab? Suggest correction