Oops, an error
Loading. Please wait.

Ohio Is For Lovers tab

version 6
version 6
6,913 views 1 this week
1 commentread comment
1 2 3 4 5
x 5
add to favorites
×
Save as Personal and add changes to this tab that will be seen only by you. Learn more ›
×
You can save this tab as Personal to edit and correct it or add notes. All changes will be seen only by you. Learn more »
launch autoscroll
font size
0
reset
how to read this tab
guitar tuner
edit
Autoscroll
slow
fast
+/-
esc
set tempo
stop
Author
Difficulty
intermediate
Dude this song is awesome it rocks i get my band Atomik_Mass to play this song and it 
awesome well here it is i hope you enjoi and please rate this one..


gtr 1 - Casey
gtr 2 - Mikah
gtr 3 - J.T.

INTRO

gtr 1 (clean)
|--------------------------------|--------------------------------|
|--------------------------------|--------------------------------|
|--------------------------------|--------------------------------|
|-------------4------------4-----|-------------4------------4-----|
|----2-----2------------2-----2--|----2-----2------------2-----2--|
|-4-----4------------2-----------|-4-----4------------2-----------|

|--------------------------------|--------------------------------|
|--------------------------------|--------------------------------|
|-------------4------------------|-------------4------------------|
|-------------4------------4-----|-------------4------------4-----|
|----2-----2------------2-----2--|----2-----2------------2-----2--|
|-0-----0------------2-----------|-0-----0------------2-----------| x3


gtr 2 (flanger)-enters x2 on gtr 1-
|--------------------------------|--------------------------------|
|--------------------------------|--------------------------------|
|-------8--------6----------8----|----6--6-----4-------6--6-----4-|
|-4/6--------4/6------4/6--------|4/6-------4------4/6-------4----|
|--------------------------------|--------------------------------|
|--------------------------------|--------------------------------| x2


THE x4 for gtr 1 GOES LIKE THIS>>>>>

gtr 1
|--------------------------------|--------------------------------|
|--------------------------------|--------------------------------|
|--------------------------------|--------------------------------|
|-------------4------------4-----|-------------4------------4-----|
|----2-----2------------2-----2--|----2-----2------------2-----2--|
|-4-----4------------2-----------|-4-----4------------2-----------|

|--------------------------------|--------------------------------|
|--------------------------------|--------------------------------|
|-------------4------------------|-------------4------------------|
|-------------4------------4-----|-------------4------------------|
|----2-----2------------2-----2--|----2-----2---------------------|
|-0-----0------------2-----------|-0-----0------------------------|
right into.....


PRE CHORUS

gtr 1 (clean)
|-------------------------------------------------------------------------|
|-------------------------------------------------------------------------|
|-----------------------------------------------66668888999---------------|
|-----------66668888999-------------------------44446666777---------------|
|-2-4--6--6-44446666777-2-22222222222-2-4--6--6---------------------------|
|-0-2--4--4-------------0-00000000000-0-2--4--4-------------0-00000000000-|
  *                                   *

gtr 2 (distortion)
|-----------------------0-------0---------------------------0-------0-----|
|-------------------------------------------------------------------------|
|-----------------------------------------------66668888999---------------|
|-----------------------------------------------44446666777---------------|
|-2-4--6--6-------------2-22222222222-2-4--6--6-------------2-22222222222-|
|-0-2--4--4-------------0-00000000000-0-2--4--4-------------0-00000000000-|
  *                                   *

gtr 3 (overdrive)
|-------------------------------------------------------------------------|
|-------------------------------------------------------------------------|
|-------------------------------------------------------------------------|
|-------------------------------------------------------------------------|
|-2-4--6--6-------------2-22222222222-2-4--6--6-------------2-22222222222-|
|-0-2--4--4-------------0-00000000000-0-2--4--4-------------0-00000000000-|
  *                                   *

THE gtr 2 DOES THIS INTO THE NEXT PART....
|------------------|
|------------------|
|------------------|
|------------------|
|-14/////////////0-|
|-14/////////////0-|


gtr 1 (clean)
|---------------------------------------------------------------------------|
|---------------------------------------------------------------------------|
|---------------------------------------66668888999-------------------------|
|---------------------------------------44446666777-------------------------|
|22222222222-6-4-2-2222222222-2-4--6--6-------------2-222222222222-4-22x44xx|
|00000000000-4-2-0-0000000000-0-2--4--4-------------0-000000000000-2-00x22xx|
                   ********** *                                  *     *  **

gtr 2 (distortion)
|---------------------------------------------------------------------------|
|---------------------------------------------------------------------------|
|---------------------------------------66668888999-------------------------|
|---------------------------------------44446666777-------------------------|
|22222222222-6-4-2-2222222222-2-4--6--6-------------2-222222222222-4-22x44xx|
|00000000000-4-2-0-0000000000-0-2--4--4-------------0-000000000000-2-00x22xx|
                   ********** *                                  *     *  **

gtr 3 (overdrive)
|---------------------------------------------------------------------------|
|---------------------------------------------------------------------------|
|---------------------------------------------------------------------------|
|---------------------------------------------------------------------------|
|22222222222-6-4-2-2222222222-2-4--6--6-------------2-222222222222-4-22x44xx|
|00000000000-4-2-0-0000000000-0-2--4--4-------------0-000000000000-2-00x22xx|
                   ********** *                                  *     *  **


CHORUS

gtr 1 (clean)
|-----------------------------------------------------------|
|-----------------------------------------------------------|
|-----------------------------------------------------------|
|-----------------------------------------------------------|
|-66-x-66-xx2-4-66-x-66-xx2-4-22-x-22-xx2-4--22-x-22-xx2-x4-|
|-44-x-44-xx0-2-44-x-44-xx0-2-00-x-00-xx0-2--00-x-00-xx0-x2-|
     *    ***      *    ***      *    ***    *  *    ***

gtr 2 (distortion)
|-----------------------------------------------------------|
|-----------------------------------------------------------|
|-----------------------------------------------------------|
|-----------------------------------------------------------|
|-66-x-66-xx2-4-66-x-66-xx2-4-22-x-22-xx2-4--22-x-22-xx2-x4-|
|-44-x-44-xx0-2-44-x-44-xx0-2-00-x-00-xx0-2--00-x-00-xx0-x2-|
     *    ***      *    ***      *    ***    *  *    ***

gtr 3 (overdrive)
|-----------------------------------------------------------|
|-----------------------------------------------------------|
|-----------------------------------------------------------|
|-----------------------------------------------------------|
|-66-x-66-xx2-4-66-x-66-xx2-4-22-x-22-xx2-4--22-x-22-xx2-x4-|
|-44-x-44-xx0-2-44-x-44-xx0-2-00-x-00-xx0-2--00-x-00-xx0-x2-|
     *    ***      *    ***      *    ***    *  *    ***


VERSE "RIFF 1"

gtr 1 (clean)
|---------------------------------|--------------------------------|
|---------------------------------|--------------------------------|
|---------------------------------|--------------------------------|
|---------------------------------|--------------------------------|
|-66666666666644446666666666664444|2222222222224444222222222224444-|
|-44444444444422224444444444442222|0000000000002222000000000002222-|
  ******************************** *******************************

gtr 2 (distortion)
|---------------------------------|--------------------------------|
|---------------------------------|--------------------------------|
|---------------------------------|--------------------------------|
|-88886666444444448888666644444444|6666888444444444666688844444444-|
|-66664444222222226666444422222222|4444666222222222444466622222222-|
|---------------------------------|--------------------------------|
  ******************************** *******************************

gtr 3 (overdrive)
|---------------------------------|--------------------------------|
|---------------------------------|--------------------------------|
|---------------------------------|--------------------------------|
|---------------------------------|--------------------------------|
|-66666666666644446666666666664444|2222222222224444222222222224444-|
|-44444444444422224444444444442222|0000000000002222000000000002222-|
  ******************************** *******************************

"RIFF 2"

gtr 1 (clean)
|---------------------------------|---------------------------------|
|---------------------------------|---------------------------------|
|---------------------------------|---------------------------------|
|---------------------------------|---------------------------------|
|-66666666666644446666666666664444|22222222222244442222222222224444-|
|-44444444444422224444444444442222|00000000000022220000000000002222-|
  ******************************** ********************************

gtr 2 (distortion)
|---------------------------------|---------------------------------|
|---------------------------------|---------------------------------|
|-88888-------666688888-------6666|64444-------666664444-------6666-|
|-66666-------444466666-------4444|42222-------444442222-------4444-|
|---------------------------------|---------------------------------|
|---------------------------------|---------------------------------|

gtr 3 (overdrive)
|---------------------------------|--------------------------------|
|---------------------------------|--------------------------------|
|---------------------------------|--------------------------------|
|-88886666444444448888666644444444|6666888444444444666688844444444-|
|-66664444222222226666444422222222|4444666222222222444466622222222-|
|---------------------------------|--------------------------------|
  ******************************** *******************************


PRE CHORUS

gtr 1 (clean)
|-------------------------------------------------------------------------|
|-------------------------------------------------------------------------|
|-----------------------------------------------66668888999---------------|
|-----------66668888999-------------------------44446666777---------------|
|-2-4--6--6-44446666777-2-22222222222-2-4--6--6---------------------------|
|-0-2--4--4-------------0-00000000000-0-2--4--4-------------0-00000000000-|
  *                                   *

gtr 2 (distortion)
|-----------------------0-------0---------------------------0-------0-----|
|-------------------------------------------------------------------------|
|-----------------------------------------------66668888999---------------|
|-----------------------------------------------44446666777---------------|
|-2-4--6--6-------------2-22222222222-2-4--6--6-------------2-22222222222-|
|-0-2--4--4-------------0-00000000000-0-2--4--4-------------0-00000000000-|
  *                                   *

gtr 3 (overdrive)
|-------------------------------------------------------------------------|
|-------------------------------------------------------------------------|
|-------------------------------------------------------------------------|
|-------------------------------------------------------------------------|
|-2-4--6--6-------------2-22222222222-2-4--6--6-------------2-22222222222-|
|-0-2--4--4-------------0-00000000000-0-2--4--4-------------0-00000000000-|
  *                                   *

THE gtr 2 DOES THIS INTO THE NEXT PART....
|------------------|
|------------------|
|------------------|
|------------------|
|-14/////////////0-|
|-14/////////////0-|


gtr 1 (clean)
|---------------------------------------------------------------------------|
|---------------------------------------------------------------------------|
|---------------------------------------66668888999-------------------------|
|---------------------------------------44446666777-------------------------|
|22222222222-6-4-2-2222222222-2-4--6--6-------------2-222222222222-4-22x44xx|
|00000000000-4-2-0-0000000000-0-2--4--4-------------0-000000000000-2-00x22xx|
                   ********** *                                  *     *  **

gtr 2 (distortion)
|---------------------------------------------------------------------------|
|---------------------------------------------------------------------------|
|---------------------------------------66668888999-------------------------|
|---------------------------------------44446666777-------------------------|
|22222222222-6-4-2-2222222222-2-4--6--6-------------2-222222222222-4-22x44xx|
|00000000000-4-2-0-0000000000-0-2--4--4-------------0-000000000000-2-00x22xx|
                   ********** *                                  *     *  **

gtr 3 (overdrive)
|---------------------------------------------------------------------------|
|---------------------------------------------------------------------------|
|---------------------------------------------------------------------------|
|---------------------------------------------------------------------------|
|22222222222-6-4-2-2222222222-2-4--6--6-------------2-222222222222-4-22x44xx|
|00000000000-4-2-0-0000000000-0-2--4--4-------------0-000000000000-2-00x22xx|
                   ********** *                                  *     *  **


CHORUS "RIFF 1"

gtr 1 (clean)
|-----------------------------------------------------------|
|-----------------------------------------------------------|
|-----------------------------------------------------------|
|-----------------------------------------------------------|
|-66-x-66-xx2-4-66-x-66-xx2-4-22-x-22-xx2-4--22-x-22-xx2-x4-|
|-44-x-44-xx0-2-44-x-44-xx0-2-00-x-00-xx0-2--00-x-00-xx0-x2-|
     *    ***      *    ***      *    ***    *  *    ***

gtr 2 (distortion)
|-----------------------------------------------------------|
|-----------------------------------------------------------|
|-----------------------------------------------------------|
|-----------------------------------------------------------|
|-66-x-66-xx2-4-66-x-66-xx2-4-22-x-22-xx2-4--22-x-22-xx2-x4-|
|-44-x-44-xx0-2-44-x-44-xx0-2-00-x-00-xx0-2--00-x-00-xx0-x2-|
     *    ***      *    ***      *    ***    *  *    ***

gtr 3 (overdrive)
|-----------------------------------------------------------|
|-----------------------------------------------------------|
|-----------------------------------------------------------|
|-----------------------------------------------------------|
|-66-x-66-xx2-4-66-x-66-xx2-4-22-x-22-xx2-4--22-x-22-xx2-x4-|
|-44-x-44-xx0-2-44-x-44-xx0-2-00-x-00-xx0-2--00-x-00-xx0-x2-|
     *    ***      *    ***      *    ***    *  *    ***


"RIFF 2"

gtr 1 (clean)
|-----------------------------------------------------------|
|-----------------------------------------------------------|
|-----------------------------------------------------------|
|-----------------------------------------------------------|
|-66-x-66-xx2-4-66-x-66-xx2-4-22-x-22-xx2-4--22-x-22-xx2-x4-|
|-44-x-44-xx0-2-44-x-44-xx0-2-00-x-00-xx0-2--00-x-00-xx0-x2-|
     *    ***      *    ***      *    ***    *  *    ***

gtr 2 (wah dist.)
|-----------------9p------------|
|-12p-11p-----12p----12p-----11-|
|---------11p------------11p----|
|-------------------------------|
|-------------------------------|
|-------------------------------| x4

gtr 3 (overdrive)
|-----------------------------------------------------------|
|-----------------------------------------------------------|
|-----------------------------------------------------------|
|-----------------------------------------------------------|
|-66-x-66-xx2-4-66-x-66-xx2-4-22-x-22-xx2-4--22-x-22-xx2-x4-|
|-44-x-44-xx0-2-44-x-44-xx0-2-00-x-00-xx0-2--00-x-00-xx0-x2-|
     *    ***      *    ***      *    ***    *  *    ***


BRIDGE

gtr 1 (clean)
|--------------------------------|--------------------------------|
|--------------------------------|--------------------------------|
|--------------------------------|--------------------------------|
|-------------4------------------|-------------4------------------|
|--------------------------------|--------------------------------|
|-4------------------2-----------|-4------------------2-----------|

|--------------------------------|--------------------------------|
|--------------------------------|--------------------------------|
|-------------4------------------|-------------4------------------|
|-------------4------------------|-------------4------------------|
|--------------------------------|--------------------------------|
|-0------------------2-----------|-0------------------------------| x2


PRE CHORUS

gtr 1 (clean)
|-------------------------------------------------------------------------|
|-------------------------------------------------------------------------|
|-----------------------------------------------66668888999---------------|
|-----------66668888999-------------------------44446666777---------------|
|-2-4--6--6-44446666777-2-22222222222-2-4--6--6---------------------------|
|-0-2--4--4-------------0-00000000000-0-2--4--4-------------0-00000000000-|
  *                                   *

gtr 2 (distortion)
|-----------------------0-------0---------------------------0-------0-----|
|-------------------------------------------------------------------------|
|-----------------------------------------------66668888999---------------|
|-----------------------------------------------44446666777---------------|
|-2-4--6--6-------------2-22222222222-2-4--6--6-------------2-22222222222-|
|-0-2--4--4-------------0-00000000000-0-2--4--4-------------0-00000000000-|
  *                                   *

gtr 3 (overdrive)
|-------------------------------------------------------------------------|
|-------------------------------------------------------------------------|
|-------------------------------------------------------------------------|
|-------------------------------------------------------------------------|
|-2-4--6--6-------------2-22222222222-2-4--6--6-------------2-22222222222-|
|-0-2--4--4-------------0-00000000000-0-2--4--4-------------0-00000000000-|
  *                                   *

THE gtr 2 DOES THIS INTO THE NEXT PART....
|------------------|
|------------------|
|------------------|
|------------------|
|-14/////////////0-|
|-14/////////////0-|


gtr 1 (clean)
|---------------------------------------------------------------------------|
|---------------------------------------------------------------------------|
|---------------------------------------66668888999-------------------------|
|---------------------------------------44446666777-------------------------|
|22222222222-6-4-2-2222222222-2-4--6--6-------------2-222222222222-4-22x44xx|
|00000000000-4-2-0-0000000000-0-2--4--4-------------0-000000000000-2-00x22xx|
                   ********** *                                  *     *  **

gtr 2 (distortion)
|---------------------------------------------------------------------------|
|---------------------------------------------------------------------------|
|---------------------------------------66668888999-------------------------|
|---------------------------------------44446666777-------------------------|
|22222222222-6-4-2-2222222222-2-4--6--6-------------2-222222222222-4-22x44xx|
|00000000000-4-2-0-0000000000-0-2--4--4-------------0-000000000000-2-00x22xx|
                   ********** *                                  *     *  **

gtr 3 (overdrive)
|---------------------------------------------------------------------------|
|---------------------------------------------------------------------------|
|---------------------------------------------------------------------------|
|---------------------------------------------------------------------------|
|22222222222-6-4-2-2222222222-2-4--6--6-------------2-222222222222-4-22x44xx|
|00000000000-4-2-0-0000000000-0-2--4--4-------------0-000000000000-2-00x22xx|
                   ********** *                                  *     *  **


CHORUS "RIFF 1"

gtr 1 (clean)
|-----------------------------------------------------------|
|-----------------------------------------------------------|
|-----------------------------------------------------------|
|-----------------------------------------------------------|
|-66-x-66-xx2-4-66-x-66-xx2-4-22-x-22-xx2-4--22-x-22-xx2-x4-|
|-44-x-44-xx0-2-44-x-44-xx0-2-00-x-00-xx0-2--00-x-00-xx0-x2-|
     *    ***      *    ***      *    ***    *  *    ***

gtr 2 (distortion)
|-----------------------------------------------------------|
|-----------------------------------------------------------|
|-----------------------------------------------------------|
|-----------------------------------------------------------|
|-66-x-66-xx2-4-66-x-66-xx2-4-22-x-22-xx2-4--22-x-22-xx2-x4-|
|-44-x-44-xx0-2-44-x-44-xx0-2-00-x-00-xx0-2--00-x-00-xx0-x2-|
     *    ***      *    ***      *    ***    *  *    ***

gtr 3 (overdrive)
|-----------------------------------------------------------|
|-----------------------------------------------------------|
|-----------------------------------------------------------|
|-----------------------------------------------------------|
|-66-x-66-xx2-4-66-x-66-xx2-4-22-x-22-xx2-4--22-x-22-xx2-x4-|
|-44-x-44-xx0-2-44-x-44-xx0-2-00-x-00-xx0-2--00-x-00-xx0-x2-|
     *    ***      *    ***      *    ***    *  *    ***


"RIFF 2"

gtr 1 (clean)
|-----------------------------------------------------------|
|-----------------------------------------------------------|
|-----------------------------------------------------------|
|-----------------------------------------------------------|
|-66-x-66-xx2-4-66-x-66-xx2-4-22-x-22-xx2-4--22-x-22-xx2-x4-|
|-44-x-44-xx0-2-44-x-44-xx0-2-00-x-00-xx0-2--00-x-00-xx0-x2-|
     *    ***      *    ***      *    ***    *  *    ***

gtr 2 (wah dist.)
|-----------------9p------------|
|-12p-11p-----12p----12p-----11-|
|---------11p------------11p----|
|-------------------------------|
|-------------------------------|
|-------------------------------| x4

gtr 3 (overdrive)
|-----------------------------------------------------------|
|-----------------------------------------------------------|
|-----------------------------------------------------------|
|-----------------------------------------------------------|
|-66-x-66-xx2-4-66-x-66-xx2-4-22-x-22-xx2-4--22-x-22-xx2-x4-|
|-44-x-44-xx0-2-44-x-44-xx0-2-00-x-00-xx0-2--00-x-00-xx0-x2-|
     *    ***      *    ***      *    ***    *  *    ***

KEEP PLAYIN TILL FADE OUT>>>>>>>>>>>>>>>>>>>>>>>>>>>>>>>>>>>>>>>>>>>>>>>>>>>

END.. please rate this tab

            
            
Suggest correction
Creating personal tab
Creating personal tab
You can edit any tab online and save it as your Personal.

You can edit, replace or remove any tab part or add personal notes – all changes will be seen only by you.

Personal tabs can be accessed anytime from any device, even offline.
Learn more »
comments
print report bad tab
1 comment total.
0 reply
TheCancerHasYou 10 Sep 15, 2008 04:36 PM

Very good. Not 100% accurate, but it's damn good! 5 STARS!

guest
You may want to rate the tab now too:
select rating
Wanna post a correction for this tab? Suggest correction