Oops, an error
Loading. Please wait.

Pens And Needles tab

version 2
version 2
1,825 views 1 this week
1 commentread comment
1 2 3 4 5
1 last vote to show rating
add to favorites
×
Save as Personal and add changes to this tab that will be seen only by you. Learn more ›
×
You can save this tab as Personal to edit and correct it or add notes. All changes will be seen only by you. Learn more »
launch autoscroll
font size
0
reset
how to read this tab
guitar tuner
edit
Autoscroll
slow
fast
+/-
esc
set tempo
stop
Difficulty
 Dont get mad if you don't like it cuz its only my first tab. I think i did pretty good, 
be the judge. thanks.

                intro x2
e|-----------------------|
B|-----------------------|
G|6--88/9-4--88/9--------|
D|6-------4--------6-6-9-|
A|4-------2--------6-6-9-|
E|-----------------4-4-7-|


               verse 1 x4

e|--------------------|
B|-------12-12--------|
G|6---4---------8-8-9-|
D|6---4---------------|
A|4---2---------------|
E|--------------------|


                pre-chorus

e|--------------------------------|
B|--------12-12-------------------|
G|8-8-9-9-------9-9-8-8-9-9-8-8---|
D|------------------------------9-|
A|--------------------------------|
E|--------------------------------|

                    chorus

e|-----------------------|
B|-----------------------|
G|6--88/9-4--88/9--------|
D|6-------4--------6-6-9-|
A|4-------2--------6-6-9-|
E|-----------------4-4-7-|


                     verse 2

e|-----------------|
B|-----------------|
G|6----4-----------|
D|6----4----6----9-|
A|4----2----6----9-|
E|----------4----7-|


Thats all i got for now ill get the rest up asap.

            
            
Suggest correction
Creating personal tab
Creating personal tab
You can edit any tab online and save it as your Personal.

You can edit, replace or remove any tab part or add personal notes – all changes will be seen only by you.

Personal tabs can be accessed anytime from any device, even offline.
Learn more »
Give kudos to tab author, rate the tab!
1 2 3 4 5
comments
print report bad tab
1 comment total.
0 reply
Caleb94Guitar 20 Dec 10, 2008 02:29 PM

pretty good. Although i think you can play 22/4 or 44/6 on the high e string. But for your first tab this is pretty good.

guest
Wanna post a correction for this tab? Suggest correction