Oops, an error
Loading. Please wait.

Pens And Needles tab

version 3
version 3
1,826 views 6 this week
2 commentsread comments
1 2 3 4 5
x 3
add to favorites
×
Save as Personal and add changes to this tab that will be seen only by you. Learn more ›
×
You can save this tab as Personal to edit and correct it or add notes. All changes will be seen only by you. Learn more »
launch autoscroll
font size
0
reset
how to read this tab
guitar tuner
edit
Autoscroll
slow
fast
+/-
esc
set tempo
stop
Band:Hawthorne Heights
Song:Pens And Needles
Tabbed by:SensesFail_dude
Tuning:Standard

just reveiwing my tabs, and saw that this is kinda wrong. so update! 
8/3/10


/  slide up
\  slide down
h  hammer-on
p  pull-off
~  vibrato
+  harmonic
x  Mute note

Intro/Chorus(2xs)
e|---------------------------------------------------------------------------|
B|-------4-4h5------------4-4h5----------------------------------------------|
G|---------------------------------------------------------------------------|
D|--6--x---------x--2--x-----------------------------------------------------|
A|--4--x---------x--2--x----------77-77x99-99--------------------------------|
E|-----x---------x--0--x----------55-55x77-77--------------------------------|

Verse(4xs)              x x x x xxx xx  |  
I Miss You...                           |
e|------------------7-----------7-------|------------------------------------|
B|----------------------4-4-5-5--44-55--|------------------------------------|
G|--6----4------------------------------|------------------------------------|
D|--x----x------------------------------|------------------------------------|
A|--4----2------------------------------|-11/------11/-----------------------|
E|--------------------------------------|--9/-------9/-----------------------|

(Intro/Chours:2xs)And all, I Had...

(chorus part 2)I Hope This Message Finds You well...
           x x x        xx
e|---------------------------------------------------------------------------|
B|---------------------------------------------------------------------------|
G|-66-66---------------------------------------------------------------------|
D|---------2-2-2-------------------------------------------------------------|
A|-44-44---2-2-2--7777--99-99------------------------------------------------|
E|---------0-0-0--5555--77-77------------------------------------------------|

Verse 2               | xxxx    xxxxx    xxxxxx   xxxx     | 
e|--------------------|------------------------------------|-----------------|
B|--------------------|------------------------------------|-----------------|
G|--6---6-------------|-6666--------------------------(2xs)|-----------------|
D|--x---x(hold notes)-|-xxxx-------------------------------|-----------------|
A|--4---4-------------|-4444----22222----777777---9999-----|-11/3------------|
E|--------------------|---------00000----555555---7777-----|--9/1------------|

(Intro/Chorus)And all. I Had...
(Chorus part2)I hope This Message Finds You well...

Breakdown(Right after the Chours,the second time around)
e|---------------------------------------------------------------------------|
B|---------------------------------------------------------------------------|
G|---------------------------------------------------------------------------|
D|---------------------------------------------------------------------------|
A|-11/3----99--11/3---99--7--77--9-------------------------------------------|
E|--9/1----77---9/1---77--5--55--7-------------------------------------------|



(still havent really figured this part out, help out?)
-Screams-I Hope This Message Finds You Well...
e|---------------------------------------------------------------------------|
B|---------------------------------------------------------------------------|
G|---------------------------------------------------------------------------|
D|---------------------------------------------------------------------------|
A|---------------------------------------------------------------------------|
E|---------------------------------------------------------------------------|

So lets pretend this is the ending...(no guitar)
(Chorus:1x)
(Chorus part 2:3xs)


Thats it, Pretty Basic, Huh?=)
ill be sure to update that part i didnt know ASAP
Suggest correction
Creating personal tab
Creating personal tab
You can edit any tab online and save it as your Personal.

You can edit, replace or remove any tab part or add personal notes – all changes will be seen only by you.

Personal tabs can be accessed anytime from any device, even offline.
Learn more »
Give kudos to tab author, rate the tab!
1 2 3 4 5
comments
print report bad tab
2 comments total.
0 reply
Chris_Vengeance 10 Feb 08, 2007 11:28 AM

this tab is pretty good
5 *'s

0 reply
b_ball_girl1021 104 May 09, 2007 12:46 PM

Well there are three guitars in Hawthorn heights so I would think there would be three guitars at least playing. I'll see if I can do one with three guitars. but not a bad tab

guest
You may want to rate the tab now too:
select rating
Wanna post a correction for this tab? Suggest correction