Oops, an error
Loading. Please wait.

Pens And Needles tab

version 4
version 4
9,431 views 1 this week
6 commentsread comments
1 2 3 4 5
x 5
add to favorites
×
Save as Personal and add changes to this tab that will be seen only by you. Learn more ›
×
You can save this tab as Personal to edit and correct it or add notes. All changes will be seen only by you. Learn more »
launch autoscroll
font size
0
reset
how to read this tab
guitar tuner
edit
Autoscroll
slow
fast
+/-
esc
set tempo
stop
Author
Difficulty
Artist: Hawthorn Heights
Song: Pens and Needles
   This could possibly be totally wrong but I love this song and had to at least give it 
try. It shouldn’t be too bad.
   For the 4-4/5 you can also do 8-8/9 on the G string and, the 2-2/4 could (if desired)
7-7/9 on the B string. They seem to do the later in the music video.
   This took forever!!!
Guitar 1: JT Woodruff
Guitar 2: Casey Calvert
Guitar 3: Micah Carli

(INTRO)                _____________________________
Guitar 1               |1.              |2.
e|---------------------|---------------||-------------------|
B*---------------------|---------------||-------------------|
G|-6*------------------|---------------||-------------------|
D|-6*----------2*------|-7-7-7--9-9-9--||-7-7-7-9*----------|
A*-4*----------2*------|-7-7-7--9-9-9--||-7-7-7-9*-Guitar 1-|
E|-------------0*------|-5-5-5--7-7-7--||-5-5-5-7*----------|
                       _____________________________
Guitar 2               |1.              |2.
e|---------------2-2/4-|---------------||-----------|
B*---------------------|---------------||-----------|
G|-6*------------------|----99----1111-||----99-----|
D|-6*---------2*-------|-77-99-99-1111-||-77-99-9*--|
A*-4*---------2*-------|-77-77-99-9 9 -||-77-77-9*--|
E|------------0*-------|-55----77------||-55----7*--|
                       _____________________________
Guitar 3               |1.              |2.
e|---------------------|---------------||-----------|
B*----4-4/5------4-4/5-|---------------||-----------|
G|-6*------------------|----99----1111-||----99-----|
D|-6*---------2*-------|-77-99-99-1111-||-77-99-9*--|
A*-4*---------2*-------|-77-77-99-9 9 -||-77-77-9*--|
E|------------0*-------|-55----77------||-55----7*--|

INTRO X2

(verse 1)
Guitar 1
|---------------------------------------------------|
|---------------------------------------------------|
|---------------------------------------------------|
|---------------------------------------------------|
|---------------------------------------------------|
|---------------------------------------------------|

Guitar 2
|---------------------------------------------------|
|---------------------------------------------------|
|--6------4-----------------------------------------|
|--6------4-----------------------------------------|
|--4------2-----------------------------------------|
|---------------------------------------------------|

Guitar 3
|-----------------88------77------------------------|
|--------------------4455----4455-------------------|
|-(6)----(4)----------------------------------------|
|-(-)----(-)----------------------------------------|
|-(4)----(2)----------------------------------------|
|---------------------------------------------------|
PM                   XXXX XX XXXX
VERSE X4
(Pre-Chorus)
Guitar 1
|---------------------------------------------------|
|---------------------------------------------------|
|---------------------------------------------------|
|-11\7------------------11\7------------------------|
|-11\7------------------11\7------------------------|
|-9 \5------------------9 \5------------------------|

Guitar 2
|---------------------------------------------------|
|---------------------------------------------------|
|---------------------------------------------------|
|-11\7------------------11\7------------------------|
|-11\7------------------11\7------------------------|
|-9 \5------------------9 \5------------------------|

Guitar 3
|-------77------77------------77------77------------|
|--4455----4455----4455--4455----4455----4455-------|
|---------------------------------------------------|
|---------------------------------------------------|
|---------------------------------------------------|
|---------------------------------------------------|

(Chorus)Part 1
Guitar 1
|----------------------------------------------------|
|----------------------------------------------------|
|-6*-------------------------------------------------|
|-6*----------2*--------7-7-7—-9-9-9-----------------|
|-4*----------2*--------7-7-7—-9-9-9-----------------|
|-------------0*--------5-5-5—-7-7-7-----------------|

Guitar 2
|----------------2-2/4-------------------------------|
|----------------------------------------------------|
|-6*----------------------99----1111-----------------|
|-6*---------2*---------7-99-99-1111-----------------|
|-4*---------2*---------7-77-99-9 9 -----------------|
|------------0*---------5----77----------------------|

Guitar 3
|----------------------------------------------------|
|-----4-4/5------4-4/5-------------------------------|
|-6*----------------------99----1111-----------------|
|-6*---------2*---------7-99-99-1111-----------------|
|-4*---------2*---------7-77-99-9 9 -----------------|
|------------0*---------5----77----------------------|

Part 1 x2
(Chorus) Part 2
Guitar 1                                                                    |--|
*------------------------------------------------------------------------------|
|-6-6-6-6-----------2-2-2-2-2-2--—4*-4*-4*-4----6------------------------------|
|-6-6-6-6—-2*-2*-2—-2-2-2-2-2-2---4*-4*-4*-4----6------------------------------|
*-4-4-4-4—-2*-2*-2—-0-0-0-0-0-0—--2*-2*-2*-2----4------------------------------|
|----------0*-0*-0-------------------------------------------------------------|

Guitar 2
|-----------------------------------------------------|
*-----------------------------------------------------|
|-6-6-6-6-----------2-2-2-2-2-2---4*-4*-4*-4----6-----|
|----------2*-2*-2------------------------------------|
*-4-4-4-4-----------0-0-0-0-0-0---2*-2*-2*-2----4-----|
|----------0*-0*-0------------------------------------|

Guitar 3
|-----------------------------------------------------|
|--4-4/5----------------------------------------------|
|--------------------(2)-----------(4)----------------|
|---------(2)--------(2)-----------(4)----------------|
|---------(2)--------(0)-----------(2)----------------|
|---------(0)-----------------------------------------|


(VERSE 2)
Guitar 1
|----------------------------------------------------|
|----------------------------------------------------|
|----------------------------------------------------|
|----------------------------------------------------|
|----------------------------------------------------|
|----------------------------------------------------|

Guitar 2  Maybe a little bending with the “4s”
|--------4-4-44444444444444444444444-----------------|
|----------------------------------------------------|
|--6-------------------------------------------------|
|--6-------------------------------------------------|
|--4-------------------------------------------------|
|----------------------------------------------------|

Guitar 3
|----------------------------------------------------|
|----------------------------------------------------|
|----------------------------------------------------|
|----------------------------------------------------|
|----------------------------------------------------|
|----------------------------------------------------|

Guitar 1
|--------------------------------------------------|
*--------------------------------------------------|
|--------------------------------------------------|
|--------------------------------------------------|
*--------------------------------------------------|
|--------------------------------------------------|


Guitar 2
|--------------------------------------------------|
*--------------------------------------------------|
|-6-6-6-6-6-6-----2-2-2-2-2-2-4-4-4-4-4-4----------|
|-6-6-6-6-6-6--2--2-2-2-2-2-2-4-4-4-4-4-4----------|
*-4-4-4-4-4-4--2--0-0-0-0-0-0-2-2-2-2-2-2----------|
|--------------0-----------------------------------|
PMX X X X X X  X  X X X X X X X X X X X

Guitar 3
|--------------------------------------------------|
*--------------------------------------------------|
|-6-6-6-6-6-6--------------------------------------|
|--------------2--7-7-7-7-7-7-9-9-9-9-9-9----------|
*-4-4-4-4-4-4--------------------------------------|
|--------------0--5-5-5-5-5-5-7-7-7-7-7-7----------|
PMX X X X X X  X  X X X X X X X X X X X

Pre-Chorus

Chorus Part 1

Chorus Part 2 x2 [don’t play the (6-6-4) for guitar 1 and don’t play the (6---4)for 
2

Bridge/solo
Guitar 1
|--------------------------------------------------------|
|--------------------------------------------------------|
|--------------------------------------------------------|
|-11\7--9-9—11\7--9-9--7--7-7--9-------------------------|
|-11\7--9-9-11\7--9-9--7--7-7--9-------------------------|
|-9 \5--7-7-9 \5--7-7--5--5-5--7-------------------------|

Guitar 2
|-------------------------------------------------------|
|-------------------------------------------------------|
|-------------------------------------------------------|
|-11\7--9-9-11\7--9-9--7--7-7--9------------------------|
|-11\7--9-9-11\7--9-9--7--7-7--9------------------------|
|-9 \5--7-7-9 \5--7-7--5--5-5--7------------------------|

Guitar 3
|--------------------|      |---------------------------|
|-4-/5-5-4-5-4h5p4p0-| x3   |-2~-/4-4-4-4---------------|
|--------------------|      |---------------------------|
|--------------------|      |---------------------------|
|--------------------|      |---------------------------|
|--------------------|      |---------------------------|

Bridge/screaming partGuitar 1
|------------------------------------------------------------|
|------------------------------------------------------------|
|-6-------------4-6-------------4-2--------------------------|
|-6-------------4-6-------------4-2--------------------------|
|-4-------------2-4-------------2-0--------------------------|
|------------------------------------------------------------|

Guitar 2
|------------------------------------------------------------|
|------------------------------------------------------------|
|------------------------------------------------------------|
|------------------------------------------------------------|
|---2--2-2--2-2-----2--2-2--2-2-----2--2-2-------------------|
|---0--0-0--0-0-----0--0-0--0-0-----0--0-0-------------------|
PM  X  X X  X X     X  X X  X X     X  X X

Guitar 3 Haven’t figured this part out yet. Updating soon!
|-----------------------------------------------------------|
|-----------------------------------------------------------|
|-----------------------------------------------------------|
|-----------------------------------------------------------|
|-----------------------------------------------------------|
|-----------------------------------------------------------|

Bridge (no guitar)

End part of Part one of the chorusthen repeat it over

Chorus Part 2 x4

            
            
Suggest correction
Creating personal tab
Creating personal tab
You can edit any tab online and save it as your Personal.

You can edit, replace or remove any tab part or add personal notes – all changes will be seen only by you.

Personal tabs can be accessed anytime from any device, even offline.
Learn more »
comments
print report bad tab
6 comments total. Showing first comments.
0 reply
g_tab_man 82 Jun 22, 2008 11:26 AM

this is good. my band used this tab to play this in our band. 5*

0 reply
kevin14u2nv 10 Jul 28, 2008 04:30 PM

gggrrr i hate it when theres more than one guitar part i never know which one too play haha

0 reply
Aurigo 1,082 Aug 31, 2008 10:53 AM

I notice there is alot of stars (*) next to notes, im guessing they are mute notes (x) but im not too sure. Please reply :)

guest
You may want to rate the tab now too:
select rating
Wanna post a correction for this tab? Suggest correction