Oops, an error
Loading. Please wait.

Saying Sorry tab

version 2
version 2

Whole song

10,868 views 6 this week
17 commentsread comments
1 2 3 4 5
x 19
add to favorites
×
Save as Personal and add changes to this tab that will be seen only by you. Learn more ›
×
You can save this tab as Personal to edit and correct it or add notes. All changes will be seen only by you. Learn more »
launch autoscroll
font size
0
reset
how to read this tab
guitar tuner
edit
Autoscroll
slow
fast
+/-
esc
set tempo
stop
Author
Difficulty
Gtr I (E A D G B E) - 'Untitled'
Gtr II (E A D G B E) - 'Untitled'
Gtr III (E A D G B E) - 'Untitled'
Gtr IV (E A D G B E) - 'Untitled'

   Intro
    Fast Rock Q=166
   4/4
    Gtr I
    E E E E E E E E    E  E E E  E  E E E      E E E E E E E E
||--9-9-9-9-9-9-9-9-|--9--9-9-9--7--7-7-7--||--9-9-9-9-9-9-9-9-|----|
||o-9-9-9-9-9-9-9-9-|--9--9-9-9--9--9-9-9-o||--9-9-9-9-9-9-9-9-|----|
||------------------|----------------------||------------------|----|
||------------------|----------------------||------------------|----|
||o-----------------|---------------------o||------------------|----|
||------------------|----------------------||------------------|----|
|
|   Gtr II
|   Q   Q   E E E E   +E  E E E +E  E E E      Q   Q   E E E E
||------------------|----------------------||------------------|----|
||o---------------9-|-(9)-9-x-4-(4)-4-----o||----------------9-|----|
||--6---6---6-6-x-9-|-(9)-9-x-4-(4)-4-4s6--||--6---6---6-6-x-9-|----|
||--6---6---6-6-x-9-|-(9)-9-x-4-(4)-4-4S6--||--6---6---6-6-x-9-|----|
||o-4---4---4-4-x-7-|-(7)-7-x-2-(2)-2-2S4-o||--4---4---4-4-x-7-|----|
||------------------|----------------------||------------------|----|
|
|   Gtr III
|   Q   Q   E E E E   +E  E E E +E  E E E      Q   Q   E E E E
||------------------|----------------------||------------------|----|
||o---------------9-|-(9)-9-x-4-(4)-4-----o||----------------9-|----|
||--6---6---6-6-x-9-|-(9)-9-x-4-(4)-4-4s6--||--6---6---6-6-x-9-|----|
||--6---6---6-6-x-9-|-(9)-9-x-4-(4)-4-4s6--||--6---6---6-6-x-9-|----|
||o-4---4---4-4-x-7-|-(7)-7-x-2-(2)-2-2s4-o||--4---4---4-4-x-7-|----|
||------------------|----------------------||------------------|----|


   E  E E E  E  E E E    E  E  E  E  E   E  E  E
|--9--9-9-9--7--7-7-7S|=12-12-12-12-12--12-12-12-|
|--9--9-9-9--9--9-9-9S|=12-12-12-12-12--12-12-12-|
|---------------------|--------------------------|
|---------------------|--------------------------|
|---------------------|--------------------------|
|---------------------|--------------------------|
|
| +E  E E E +E  E E E    Q     Q    +Q.        E
|---------------------|------------------------0-|
|-(9)-9-x-4-(4)-4-x---|--------------------------|
|-(9)-9-x-4-(4)-4-x-2-|--2-----2----(2)----------|
|-(9)-9-x-4-(4)-4-x-2-|--2-----2----(2)----------|
|-(7)-7-x-2-(2)-2-x-0-|--0-----0----(0)----------|
|---------------------|--------------------------|
|
| +E  E E E +E  E E E    Q     Q     Q.        E
|---------------------|------------------------0-|
|-(9)-9-x-4-(4)-4-x---|--------------------------|
|-(9)-9-x-4-(4)-4-x-2-|--2-----2-----2-----------|
|-(9)-9-x-4-(4)-4-x-2-|--2-----2-----2-----------|
|-(7)-7-x-2-(2)-2-x-0-|--0-----0-----0-----------|
|---------------------|--------------------------|


   E   E  E  E  E  E  E  E
|-12--12-12-12-12-12-14-14\-||----|
|-12--12-12-12-12-12-14-14\-||----|
|---------------------------||----|
|---------------------------||----|
|---------------------------||----|
|---------------------------||----|
|
| +Q      Q  E        E  E
|-(0)-----------------------||----|
|---------0-----------------||----|
|---------------------------||----|
|--------------------11-11\-||----|
|---------------------9--9\-||----|
|---------------------7--7\-||----|
|
| +Q      E  E        E  E
|-(0)-----------------------||----|
|---------0-----------------||----|
|---------------------------||----|
|--------------------11-11\-||----|
|---------------------9--9\-||----|
|---------------------7--7\-||----|


   Verse 1
    PM|                       PM|
    E E H.       +W           E E H.        +W
||-------------|------------|-------------|--------|
||o-----0------|-(0)--------|-----0-------|-(0)----|
||------4------|-(4)--------|-----4-------|-(4)----|
||--2-2-2------|-(2)--------|-2-2-2-------|-(2)----|
||o-4-4-4------|-(4)--------|-4-4-4-------|-(4)----|
||-------------|------------|-------------|--------|
|
|   PM|                       PM|
|   E E H.       +W           E E H.        +W
||-------------|------------|-------------|--------|
||o-----0------|-(0)--------|-----0-------|-(0)----|
||------4------|-(4)--------|-----4-------|-(4)----|
||--2-2-2------|-(2)--------|-2-2-2-------|-(2)----|
||o-4-4-4------|-(4)--------|-4-4-4-------|-(4)----|
||-------------|------------|-------------|--------|
|
||-------------|------------|-------------|--------|
||o------------|------------|-------------|--------|
||-------------|------------|-------------|--------|
||-------------|------------|-------------|--------|
||o------------|------------|-------------|--------|
||-------------|------------|-------------|--------|


                                           Pre-Chorus
  E E E E E E E E   E E E E E E E E         E E E E E E E E
|-----------------|------------------||-||------------------|----|
|-----------------|---------4-4-----o||-||o-----------------|----|
|---------4-4-----|-----4-4-----4-4--||-||------------------|----|
|-----2-2-----2-2-|------------------||-||--2---2---2---2---|----|
|-0-0-------------|-2-2-------------o||-||o---0---0---0---0-|----|
|-----------------|------------------||-||------------------|----|
|
| W                 W                       E E E E E E E E
|-----------------|------------------||-||------------------|----|
|-----------------|-----------------o||-||o-----9-----9---9-|----|
|-----------------|------------------||-||----9---9---------|----|
|-----------------|------------------||-||--7-------7---7---|----|
|-0---------------|-2---------------o||-||o-----------------|----|
|-----------------|------------------||-||------------------|----|
|
|-----------------|------------------||-||------------------|----|
|-----------------|-----------------o||-||o-----------------|----|
|-----------------|------------------||-||------------------|----|
|-----------------|------------------||-||------------------|----|
|-----------------|-----------------o||-||o-----------------|----|
|-----------------|------------------||-||------------------|----|


  E E E E E E E E    E E E E  E E  E E
|-----------------|--------------------|
|-----------------|--------------------|
|-----------------|--------------------|
|-1---1---1---1---|--2---2----2----2---|
|---2---2---2---2-|----4---4----4----4-|
|-----------------|--------------------|
|
| E E E E E E E E    E E E E  E E  E E
|-----------------|--------------------|
|-----9-----9---9-|------9------9----9-|
|---9---9---------|----9---9-----------|
|-9-------9---9---|-11-------11---11---|
|-----------------|--------------------|
|-----------------|--------------------|
|
|-----------------|--------------------|
|-----------------|--------------------|
|-----------------|--------------------|
|-----------------|--------------------|
|-----------------|--------------------|
|-----------------|--------------------|


 1.                   2.
  E E E E E  E E E     E  E  E E  E  E  E E
|-------------------||----------------------|
|------------------o||----------------------|
|-------------------||----------------------|
|-1---1---1----1----||----4--4----4--4----2-|
|---2---2----2---2-o||-0--2--2----2--2----0-|
|-------------------||----------------------|
|
| E E E E E  E E E     E  E  E E  E  E  E E
|-------------------||----------------------|
|-----9---9-10-9---o||---14-14---14-14\-----|
|---9------------9--||----x--x----x--x------|
|-9-----9-----------||---11-11---11-11\---2-|
|------------------o||--------------------0-|
|-------------------||----------------------|
|
|                      E  E  E E  E  E  E E
|-------------------||----------------------|
|------------------o||---14-14---14-14\-----|
|-------------------||----x--x----x--x\-----|
|-------------------||---11-11---11-11\---2-|
|------------------o||--------------------0-|
|-------------------||----------------------|


   Chorus
    +H.                      E E    H.             E E
||-------------------------------|---------------------|
||o------------------------------|---------------------|
||-------------------------------|---------------------|
||--(2)----------------------x-4-|--4--------------x-6-|
||o-(0)----------------------x-2-|--2--------------x-4-|
||-------------------------------|---------------------|
|
|   +E  +E   E  E  +E   +E   E E   +Q   E  E  +Q   E E
||-------------------------------|---------------------|
||o------------------------------|---------------------|
||--------------9--(9)--(9)\-----|---------8--(8)------|
||--(2)-(2)/-x--x--(x)--(x)\-x-4-|-(4)--x--x--(x)--x-6-|
||o-(0)------x--7--(7)--(7)\-x-2-|-(2)--x--6--(6)--x-4-|
||-------------------------------|---------------------|
|
|   +E  +E   E  E  +E   +E   E E   +Q   E  E  +Q   E E
||-------------------------------|---------------------|
||o------------12-(12)-(12)\-----|--------10-(10)------|
||--------------x--(x)--(x)\-----|---------x--(x)------|
||--(2)-(2)/-x--9--(9)--(9)\-x-4-|-(4)--x--7--(7)--x-6-|
||o-(0)------x---------------x-2-|-(2)--x----------x-4-|
||-------------------------------|---------------------|


                         1.
  +H.               E E   +H.           E E
|-----------------------|--------------------||---|
|-----------------------|-------------------o||---|
|-----------------------|--------------------||---|
|-(6)---------------x-4-|-(4)-----------x-2--||---|
|-(4)---------------x-2-|-(2)-----------x-0-o||---|
|-----------------------|--------------------||---|
|
| +Q   E E +E  +E   E E   +Q   E  E E E E E
|-----------------------|--------------------||---|
|-----------------------|-------------------o||---|
|--------9-(9)-(9)\-----|--------11---9------||---|
|-(6)--x-x-(x)-(x)\-x-4-|-(4)--x--x---x---2--||---|
|-(4)--x-7-(7)-(7)\-x-2-|-(2)--x--9---7---0-o||---|
|-----------------------|--------------------||---|
|
|  Q   E E +E  +E   E E   +Q   E  E E E E E
|-----------------------|--------------------||---|
|--------9-(9)-(9)\-----|--------10---9-----o||---|
|--------x-(x)-(x)\-----|---------x---x------||---|
|--6---x-6-(6)-(6)\-x-4-|-(4)--x--7---6---2--||---|
|--4---x------------x-2-|-(2)--x----------0-o||---|
|-----------------------|--------------------||---|


                     Verse 2
  2.
                             PM--------------------------|
  H.           E E     +E  E E E S S E E E   E E E E E E E E
|------------------||----------------------|-------------------|----|
|------------------||----------------------|-------------------|----|
|------------------||----------------------|-------------------|----|
|-4------------0-6-||--(6)-6---------------|---------------6---|----|
|-2------------0-4-||--(4)-4-4-4-4-4-4-4-4-|-4-4-4-4-4-4-0-4---|----|
|------------------||----------------------|-------------------|----|
|
|                            PM----------|
|                                            |-3-|
| Q   E  E E E E E     +E  E E E S S E E E   E E E E E E E E E
|------------------||----------------------|-------------------|----|
|------------------||----------------------|-4h5p4-------------|----|
|-------11---9-----||----------------------|-------6-6-4-6-----|----|
|-4---x--x---x---6-||--(6)-6---------------|-----------------6-|----|
|-2---x--9---7---4-||--(4)-4-4-4-4-4-4-4-4-|-----------------4-|----|
|------------------||----------------------|-------------------|----|
|
|                            PM----------|
|                                            |-3-|
| Q   E  E E E E E     +E  E E E S S E E E   E E E E E E E E E
|------------------||----------------------|-------------------|----|
|-------10---9-----||----------------------|-4h5p4-------------|----|
|--------x---x-----||----------------------|-------6-6-4-6-----|----|
|-4---x--7---6---6-||--(6)-6---------------|-----------------6-|----|
|-2---x----------4-||--(4)-4-4-4-4-4-4-4-4-|-----------------4-|----|
|------------------||----------------------|-------------------|----|


        PM--------------------------|
  +E  E E E S S E E E   E E E E E E E E     +W
|---------------------|-------------------|-------------------|----|
|---------------------|-------------------|-------------------|----|
|---------------------|-------------------|-------------------|----|
|-(6)-6---------------|---------------2---|-(2)---------------|----|
|-(4)-4-4-4-4-4-4-4-4-|-4-4-4-4-4-4-0-0---|-(0)---------------|----|
|---------------------|-------------------|-------------------|----|
|
|       PM----------|                        PM-------------|
|                       |-3-|
| +E  E E E S S E E E   E E E E E E E E E   +E  E E E E E E E
|---------------------|-4h7p4-------------|-------------------|----|
|---------------------|-------5-4-4-5---5-|-(5)-------5-------|----|
|---------------------|-------------------|-----6-6-6---6-6s8-|----|
|-(6)-6---------------|-------------------|-------------------|----|
|-(4)-4-4-4-4-4-4-4-4-|-------------------|-------------------|----|
|---------------------|-------------------|-------------------|----|
|
|       PM----------|                           PM----------|
|                       |-3-|
| +E  E E E S S E E E   E E E E E E E E E   +E  E E E E E E E
|---------------------|-------------------|-------------------|----|
|---------------------|-4h5p4-----------5-|-(5)-------5-------|----|
|---------------------|-------6-6-4-6-----|-----6-6-6---6-6s8-|----|
|-(6)-6---------------|-------------------|-------------------|----|
|-(4)-4-4-4-4-4-4-4-4-|-------------------|-------------------|----|
|---------------------|-------------------|-------------------|----|


                            PM------------------------------|
  H.            E E   +E  E E E S S E E E   E   E   E E E E E E
|-------------------|---------------------|---------------------|----|
|-------------------|---------------------|---------------------|----|
|-------------------|---------------------|---------------------|----|
|-4-------------x-6-|-(6)-6---------------|-------------------6-|----|
|-2-------------x-4-|-(4)-4-4-4-4-4-4-4-4-|-4---4---4-4-4-4-0-4-|----|
|-------------------|---------------------|---------------------|----|
|
| PM--------------|         PM----------|
|                                           |--3--|
| E  E E E E E  E E    E  E E E S S E E E   E E   E E E E E E E
|-------------------|---------------------|---------------------|----|
|-7--------7--------|---------------------|-4h5p==4-------------|----|
|----8-8-8---8\-----|---------------------|---------6-6-4-6-----|----|
|-----------------6-|--6--6---------------|-------------------6-|----|
|-----------------4-|--4--4-4-4-4-4-4-4-4-|-------------------4-|----|
|-------------------|---------------------|---------------------|----|
|
| PM--------------|         PM----------|
|                                           |--3--|
| E  E E E E E  E E    E  E E E S S E E E   E E   E E E E E E E
|-------------------|---------------------|---------------------|----|
|-7--------7--------|---------------------|-4h5p==4-------------|----|
|----8-8-8---8\-----|---------------------|---------6-6-4-6-----|----|
|-----------------6-|--6--6---------------|-------------------6-|----|
|-----------------4-|--4--4-4-4-4-4-4-4-4-|-------------------4-|----|
|-------------------|---------------------|---------------------|----|


        PM------------------------------|
  +E  E E E S S E E E   E   E   E E E E E E   +W           W
|---------------------|---------------------|------------|------|
|---------------------|---------------------|------------|------|
|---------------------|---------------------|------------|------|
|-(6)-6---------------|-------------------2-|-(2)--------|-4----|
|-(4)-4-4-4-4-4-4-4-4-|-4---4---4-4-4-4-0-0-|-(0)--------|-2----|
|---------------------|---------------------|------------|------|
|
|       PM----------|
|                       |--3--|
| +E  E E E S S E E E   E E   E E E E E E E   +W           W
|---------------------|-4h7p==4-------------|------------|------|
|---------------------|---------5-4-4-5-----|------------|------|
|---------------------|-------------------6-|-(6)--------|-8----|
|-(6)-6---------------|---------------------|------------|------|
|-(4)-4-4-4-4-4-4-4-4-|---------------------|------------|------|
|---------------------|---------------------|------------|------|
|
|       PM----------|
|                       |--3--|
| +E  E E E S S E E E   E E   E E E E E E E   +W           W
|---------------------|---------------------|------------|------|
|---------------------|-4h5p==4-------------|------------|------|
|---------------------|---------6-6-4-6---6-|-(6)--------|-8----|
|-(6)-6---------------|---------------------|------------|------|
|-(4)-4-4-4-4-4-4-4-4-|---------------------|------------|------|
|---------------------|---------------------|------------|------|


 Pre-Chorus 2
  E E E E E E E E    E  E E E E E E E    E E E E  E E  E E   E E E E E  E E E
|-----------------|-------------------|--------------------|------------------|
|-----------------|-------------------|--------------------|------------------|
|-----------------|-------------------|--------------------|------------------|
|-2---2---2---2---|--1----1---1---1---|--2---2----2----2---|-1---1---1----1---|
|---0---0---0---0-|-----2---2---2---2-|----4---4----4----4-|---2---2----2---2-|
|-----------------|-------------------|--------------------|------------------|
|
| E E E E E E E E    E  E E E E E E E    E E E E  E E  E E   E E E E E  E E E
|-----------------|-------------------|--------------------|------------------|
|-----9-----9---9-|-------9-----9---9-|------9------9----9-|-----9---9-10-9---|
|---9---9---------|-----9---9---------|----9---9-----------|---9------------9-|
|-7-------7---7---|--9--------9---9---|-11-------11---11---|-9-----9----------|
|-----------------|-------------------|--------------------|------------------|
|-----------------|-------------------|--------------------|------------------|
|
| W                 +W
|-----------------|-------------------|--------------------|------------------|
|-----------------|-------------------|--------------------|------------------|
|-9---------------|-(9)---------------|--------------------|------------------|
|-----------------|-------------------|--------------------|------------------|
|-----------------|-------------------|--------------------|------------------|
|-----------------|-------------------|--------------------|------------------|


  E E E E E E E E   E E E E E E E E
|-----------------|-----------------|
|-----------------|-----------------|
|-----------------|-----------------|
|-2---2---2---2---|-1---1---1---1---|
|---0---0---0---0-|---2---2---2---2-|
|-----------------|-----------------|
|
| E E E E E E E E   E E E E E E E E
|-----------------|-----------------|
|-----9-----9---9-|-----9-----9---9-|
|---9---9---------|---9---9---------|
|-7-------7---7---|-9-------9---9---|
|-----------------|-----------------|
|-----------------|-----------------|
|
|-----------------|-----------------|
|-----------------|-----------------|
|-----------------|-----------------|
|-----------------|-----------------|
|-----------------|-----------------|
|-----------------|-----------------|


   E E E E  E E  E E   E  E  E E  E  E  E E
|--------------------|----------------------|
|--------------------|----------------------|
|--------------------|----------------------|
|--2---2----2----2---|----4--4----4--4----2-|
|----4---4----4----4-|-0--2--2----2--2----0-|
|--------------------|----------------------|
|
|  E E E E  E E  E E   E  E  E E  E  E  E E
|--------------------|----------------------|
|------9------9----9-|---14-14---14-14\-----|
|----9---9-----------|----x--x----x--x------|
|-11-------11---11---|---11-11---11-11\---2-|
|--------------------|--------------------0-|
|--------------------|----------------------|
|
|                      E  E  E E  E  E  E E
|--------------------|----------------------|
|--------------------|---14-14---14-14\-----|
|--------------------|----x--x----x--x------|
|--------------------|---11-11---11-11\---2-|
|--------------------|--------------------0-|
|--------------------|----------------------|


   Chorus
    +H.                      E E
||-------------------------------|
||o------------------------------|
||-------------------------------|
||--(2)----------------------x-4-|
||o-(0)----------------------x-2-|
||-------------------------------|
|
|   +E  +E   E  E  +E   +E   E E
||-------------------------------|
||o------------------------------|
||--------------9--(9)--(9)\-----|
||--(2)-(2)/-x--x--(x)--(x)\-x-4-|
||o-(0)------x--7--(7)--(7)\-x-2-|
||-------------------------------|
|
|   +E  +E   E  E  +E   +E   E E
||-------------------------------|
||o------------12-(12)-(12)\-----|
||--------------x--(x)--(x)\-----|
||--(2)-(2)/-x--9--(9)--(9)\-x-4-|
||o-(0)------x---------------x-2-|
||-------------------------------|


   H.             E E   +H.               E E
|---------------------|--------------------------|
|---------------------|--------------------------|
|---------------------|--------------------------|
|--4--------------x-6-|-(6)---------------x-4----|
|--2--------------x-4-|-(4)---------------x-2----|
|---------------------|--------------------------|
|
| +Q   E  E  +Q   E E   +Q   E E +E  +E   E E
|---------------------|--------------------------|
|---------------------|--------------------------|
|---------8--(8)------|--------9-(9)-(9)\--------|
|-(4)--x--x--(x)--x-6-|-(6)--x-x-(x)-(x)\-x-4----|
|-(2)--x--6--(6)--x-4-|-(4)--x-7-(7)-(7)\-x-2----|
|---------------------|--------------------------|
|
| +Q   E  E  +Q   E E    Q   E E +E  +E   E E
|---------------------|--------------------------|
|--------10-(10)------|--------9-(9)-(9)\--------|
|---------x--(x)------|--------x-(x)-(x)\--------|
|-(4)--x--7--(7)--x-6-|--6---x-6-(6)-(6)\-x-4----|
|-(2)--x----------x-4-|--4---x------------x-2----|
|---------------------|--------------------------|


  H.           E E     +Q       Q      Q        E E
|-------------------||------------------------------|
|------------------o||------------------------------|
|-------------------||------------------------------|
|-4------------x-2--||-(2)----------------------x-4-|
|-2------------x-0-o||-(0)----------------------x-2-|
|-------------------||------------------------------|
|
| Q   E  E E E E E      E  +E   E  E  +E   +E   E E
|-------------------||------------------------------|
|------------------o||------------------------------|
|-------11---9------||-------------9--(9)--(9)\-----|
|-4---x--x---x---2--||--2--(2)/-x--x--(x)--(x)\-x-4-|
|-2---x--9---7---0-o||--0-------x--7--(7)--(7)\-x-2-|
|-------------------||------------------------------|
|
| Q   E  E E E E E      E  +E   E  E  +E   +E   E E
|-------------------||------------------------------|
|-------10---9-----o||------------12-(12)-(12)\-----|
|--------x---x------||-------------x--(x)--(x)\-----|
|-4---x--7---6---2--||--2--(2)/-x--9--(9)--(9)\-x-4-|
|-2---x----------0-o||--0-------x---------------x-2-|
|-------------------||------------------------------|


   Q   Q      Q   E E    Q   Q    Q       E Q
|---------------------|-------------------------|
|---------------------|-------------------------|
|---------------------|-------------------------|
|--4--------------x-6-|--6----------------x-4---|
|--2--------------x-4-|--4----------------x-2---|
|---------------------|-------------------------|
|
| +Q   E  E  +Q   E E   +Q   E E +E  +E   E E
|---------------------|-------------------------|
|---------------------|-------------------------|
|---------8--(8)------|--------9-(9)-(9)\-------|
|-(4)--x--x--(x)--x-6-|-(6)--x-x-(x)-(x)\-x-4---|
|-(2)--x--6--(6)--x-4-|-(4)--x-7-(7)-(7)\-x-2---|
|---------------------|-------------------------|
|
| +Q   E  E  +Q   E E    Q   E E +E  +E   E E
|---------------------|-------------------------|
|--------10-(10)------|--------9-(9)-(9)\-------|
|---------x--(x)------|--------x-(x)-(x)\-------|
|-(4)--x--7--(7)--x-6-|--6---x-6-(6)-(6)\-x-4---|
|-(2)--x----------x-4-|--4---x------------x-2---|
|---------------------|-------------------------|


  +Q   Q    E E E E   +Q   Q  Q  E E   +Q   Q  Q  E E   +Q   Q  Q  Q E
|-------------------|----------------|----------------|------------------|
|-------------------|----------------|----------------|------------------|
|-------------------|----------------|----------------|------------------|
|-(4)--4----4-4-x-2-|-(2)--------x-4-|-(4)--------x-6-|-(6)--------x-4---|
|-(2)--2----2-2-x-0-|-(0)--------x-2-|-(2)--------x-4-|-(4)--------x-2---|
|-------------------|----------------|----------------|------------------|
|
| +Q   E  E E E E E    W                W                W
|-------------------|----------------|----------------|------------------|
|-------------------|----------------|----------------|------------------|
|--------11---9-----|----------------|----------------|------------------|
|-(4)--x--x---x---2-|----------------|----------------|------------------|
|-(2)--x--9---7---0-|----------------|----------------|------------------|
|-------------------|----------------|----------------|------------------|
|
| +Q   E  E E E E E    W                W                W
|-------------------|----------------|----------------|------------------|
|--------10---9-----|----------------|----------------|------------------|
|---------x---x-----|----------------|----------------|------------------|
|-(4)--x--7---6---2-|----------------|----------------|------------------|
|-(2)--x----------0-|----------------|----------------|------------------|
|-------------------|----------------|----------------|------------------|


                                  Interlude
                              Gtr IV
  +E   E  E  E    Q  Q  E E E E    +E  E E E E E E E    E  E Q  E E E E
|---------------|---------------||-----------0-0-----|--0--0------------|
|---------------|---------------||-----------0-0-----|--0--0------------|
|---------------|---------------||-----4-4-4-4-4-4-4-|--4--4------------|
|-(4)--4--4--4--|-4--4--4-4-4-6-||-----2-2-2-2-2-2-2-|--2--2----1-1-----|
|-(2)--2--2--2--|-2--2--2-2-2-4-||-(4)---------------|-------4--2-----4-|
|---------------|---------------||-------------------|------------------|
|
|  Q   Q  Q  Q    Q  Q  E E E E    +W                  +W
|---------------|---------------||-------------------|------------------|
|---------------|---------------||-------------------|------------------|
|---------------|---------------||-------------------|------------------|
|--4---4--4--4--|-4--4--x-x-x-6-||-(6)---------------|-(6)--------------|
|--2---2--2--2--|-2--2--x-x-x-4-||-(4)---------------|-(4)--------------|
|---------------|---------------||-------------------|------------------|
|
|  Q   Q  Q  Q    Q  Q  E E E E    +W                  +W
|---------------|---------------||-------------------|------------------|
|---------------|---------------||-------------------|------------------|
|---------------|---------------||-------------------|------------------|
|--4---4--4--4--|-4--4--x-x-x-6-||-(6)---------------|-(6)--------------|
|--2---2--2--2--|-2--2--x-x-x-4-||-(4)---------------|-(4)--------------|
|---------------|---------------||-------------------|------------------|


  +E  E E E E E E E    E  E Q  E E E E   +E  E E E E E E E    E  E Q  E E E E
|-----------0-0-----|--0--0------------|-----------0-0-----|--0--0------------|
|-----------0-0-----|--0--0------------|-----------0-0-----|--0--0------------|
|-----4-4-4-4-4-4-4-|--4--4------------|-----4-4-4-4-4-4-4-|--4--4------------|
|-----2-2-2-2-2-2-2-|--2--2----6-6---4-|-(4)-4-4-4-4-4-4-4-|--4--4----1-1---2-|
|-(4)---------------|-------4--7-----6-|-(6)---------------|-------6--2-----0-|
|-------------------|------------------|-------------------|------------------|
|
| +W                  +W                 +W                  +W
|-------------------|------------------|-------------------|------------------|
|-------------------|------------------|-------------------|------------------|
|-------------------|------------------|-------------------|------------------|
|-(6)---------------|-(6)--------------|-(6)---------------|-(6)--------------|
|-(4)---------------|-(4)--------------|-(4)---------------|-(4)--------------|
|-------------------|------------------|-------------------|------------------|
|
| +W                  +W                 +W                  +W
|-------------------|------------------|-------------------|------------------|
|-------------------|------------------|-------------------|------------------|
|-------------------|------------------|-------------------|------------------|
|-(6)---------------|-(6)--------------|-(6)---------------|-(6)--------------|
|-(4)---------------|-(4)--------------|-(4)---------------|-(4)--------------|
|-------------------|------------------|-------------------|------------------|


                                        Bridge
  +E  E E E E E E E   E E E E E E E E    +E  E E E E E E E   E E Q  E E E E
|-----------0-0-----|-0-0-------------||-----------0-0-----|-0-0------------|
|-----------0-0-----|-0-0-------------||-----------0-0-----|-0-0------------|
|-----2-2-2-2-2-2-2-|-2-2-2-2---------||-----4-4-4-4-4-4-4-|-4-4------------|
|-(2)-2-2-2-2-2-2-2-|-2-2-2-2-1-1-----||-----2-2-2-2-2-2-2-|-2-2----1-1-----|
|-(0)---------------|---------2-----4-||-(4)---------------|-----4--2-----4-|
|-------------------|-----------------||-------------------|----------------|
|
|-------------------|-----------------||-------------------|----------------|
|-------------------|-----------------||-------------------|----------------|
|-------------------|-----------------||-------------------|----------------|
|-------------------|-----------------||-------------------|----------------|
|-------------------|-----------------||-------------------|----------------|
|-------------------|-----------------||-------------------|----------------|
|
|-------------------|-----------------||-------------------|----------------|
|-------------------|-----------------||-------------------|----------------|
|-------------------|-----------------||-------------------|----------------|
|-------------------|-----------------||-------------------|----------------|
|-------------------|-----------------||-------------------|----------------|
|-------------------|-----------------||-------------------|----------------|


  +E  E E E E E E E   E E Q  E E E E   +E  E E E E E E E   E E Q  E E E E
|-----------0-0-----|-0-0------------|-----------0-0-----|-0-0------------|
|-----------0-0-----|-0-0------------|-----------0-0-----|-0-0------------|
|-----4-4-4-4-4-4-4-|-4-4------------|-----4-4-4-4-4-4-4-|-4-4------------|
|-----2-2-2-2-2-2-2-|-2-2----6-6---4-|-(4)-4-4-4-4-4-4-4-|-4-4----1-1---2-|
|-(4)---------------|-----4--7-----6-|-(6)---------------|-----6--2-----0-|
|-------------------|----------------|-------------------|----------------|
|
|-------------------|----------------|-------------------|----------------|
|-------------------|----------------|-------------------|----------------|
|-------------------|----------------|-------------------|----------------|
|-------------------|----------------|-------------------|----------------|
|-------------------|----------------|-------------------|----------------|
|-------------------|----------------|-------------------|----------------|
|
|-------------------|----------------|-------------------|----------------|
|-------------------|----------------|-------------------|----------------|
|-------------------|----------------|-------------------|----------------|
|-------------------|----------------|-------------------|----------------|
|-------------------|----------------|-------------------|----------------|
|-------------------|----------------|-------------------|----------------|


  E E E E E E E E   E E E E E E E E   +E  E E E E E E E   E E E E E E E E
|---------0-0-----|-0-0-------------|-----------0-0-----|-0-0-------------|
|---------0-0-----|-0-0-------------|-----------0-0-----|-0-0-------------|
|---2-2-2-2-2-2-2-|-2-2-2-2---------|-----2-2-2-2-2-2-2-|-2-2-2-2---------|
|-2-2-2-2-2-2-2-2-|-2-2-2-2-1-1---2-|-(2)-2-2-2-2-2-2-2-|-2-2-2-2-1-1---2-|
|-0---------------|---------2-----0-|-(0)---------------|---------2-----0-|
|-----------------|-----------------|-------------------|-----------------|
|
|                                                         H       Q E   E
|-----------------|-----------------|-------------------|-----------------|
|-----------------|-----------------|-------------------|-----------------|
|-----------------|-----------------|-------------------|-----------------|
|-----------------|-----------------|-------------------|---------------2-|
|-----------------|-----------------|-------------------|---------------0-|
|-----------------|-----------------|-------------------|-----------------|
|
|                                                         H       Q E   E
|-----------------|-----------------|-------------------|-----------------|
|-----------------|-----------------|-------------------|-----------------|
|-----------------|-----------------|-------------------|-----------------|
|-----------------|-----------------|-------------------|---------------2-|
|-----------------|-----------------|-------------------|---------------0-|
|-----------------|-----------------|-------------------|-----------------|


 Out-Chorus
      Gtr I
  +E
|------------------------------|---------------------|
|------------------------------|---------------------|
|------------------------------|---------------------|
|-(2)--------------------------|---------------------|
|-(0)--------------------------|---------------------|
|------------------------------|---------------------|
|
| +E  +E   E  E  +E   +E   E E   +Q   E  E  +Q   E E
|------------------------------|---------------------|
|------------------------------|---------------------|
|-------------9--(9)--(9)\-----|---------8--(8)------|
|-(2)-(2)/-x--x--(x)--(x)\-x-4-|-(4)--x--x--(x)--x-6-|
|-(0)------x--7--(7)--(7)\-x-2-|-(2)--x--6--(6)--x-4-|
|------------------------------|---------------------|
|
| +E  +E   E  E  +E   +E   E E   +Q   E  E  +Q   E E
|------------------------------|---------------------|
|------------12-(12)-(12)\-----|--------10-(10)------|
|-------------x--(x)--(x)\-----|---------x--(x)------|
|-(2)-(2)/-x--9--(9)--(9)\-x-4-|-(4)--x--7--(7)--x-6-|
|-(0)------x---------------x-2-|-(2)--x----------x-4-|
|------------------------------|---------------------|


|-----------------------|-----------------|
|-----------------------|-----------------|
|-----------------------|-----------------|
|-----------------------|-----------------|
|-----------------------|-----------------|
|-----------------------|-----------------|
|
| +Q   E E +E  +E   E E   Q  E  E E E E E
|-----------------------|-----------------|
|-----------------------|-----------------|
|--------9-(9)-(9)\-----|------11---9-----|
|-(6)--x-x-(x)-(x)\-x-4-|-4--x--x---x---2-|
|-(4)--x-7-(7)-(7)\-x-2-|-2--x--9---7---0-|
|-----------------------|-----------------|
|
|  Q   E E +E  +E   E E   Q  E  E E E E E
|-----------------------|-----------------|
|--------9-(9)-(9)\-----|------10---9-----|
|--------x-(x)-(x)\-----|-------x---x-----|
|--6---x-6-(6)-(6)\-x-4-|-4--x--7---6---2-|
|--4---x------------x-2-|-2--x----------0-|
|-----------------------|-----------------|


|----------------------------|---------------------|
|----------------------------|---------------------|
|----------------------------|---------------------|
|----------------------------|---------------------|
|----------------------------|---------------------|
|----------------------------|---------------------|
|
| E +E   E  E  +E   +E   E E   +Q   E  E  +Q   E E
|----------------------------|---------------------|
|----------------------------|---------------------|
|-----------9--(9)--(9)\-----|---------8--(8)------|
|-2-(2)/-x--x--(x)--(x)\-x-4-|-(4)--x--x--(x)--x-6-|
|-0------x--7--(7)--(7)\-x-2-|-(2)--x--6--(6)--x-4-|
|----------------------------|---------------------|
|
| E +E   E  E  +E   +E   E E   +Q   E  E  +Q   E E
|----------------------------|---------------------|
|----------12-(12)-(12)\-----|--------10-(10)------|
|-----------x--(x)--(x)\-----|---------x--(x)------|
|-2-(2)/-x--9--(9)--(9)\-x-4-|-(4)--x--7--(7)--x-6-|
|-0------x---------------x-2-|-(2)--x----------x-4-|
|----------------------------|---------------------|


                          H       Q   E E
|-----------------------|-----------------|
|-----------------------|-----------------|
|-----------------------|-----------------|
|-----------------------|---------------2-|
|-----------------------|---------------0-|
|-----------------------|-----------------|
|
| +Q   E E +E  +E   E E   Q  E  E E E E E
|-----------------------|-----------------|
|-----------------------|-----------------|
|--------9-(9)-(9)\-----|------11---9-----|
|-(6)--x-x-(x)-(x)\-x-4-|-4--x--x---x---2-|
|-(4)--x-7-(7)-(7)\-x-2-|-2--x--9---7---0-|
|-----------------------|-----------------|
|
|  Q   E E +E  +E   E E   Q  E  E E E E E
|-----------------------|-----------------|
|--------9-(9)-(9)\-----|------10---9-----|
|--------x-(x)-(x)\-----|-------x---x-----|
|--6---x-6-(6)-(6)\-x-4-|-4--x--7---6---2-|
|--4---x------------x-2-|-2--x----------0-|
|-----------------------|-----------------|


  H.                      E E    H.             E E
|-----------------------------|---------------------|
|-----------------------------|---------------------|
|-----------------------------|---------------------|
|-2-----------------------x-4-|--4--------------x-6-|
|-0-----------------------x-2-|--2--------------x-4-|
|-----------------------------|---------------------|
|
| E  +E   E  E  +E   +E   E E   +Q   E  E  +Q   E E
|-----------------------------|---------------------|
|-----------------------------|---------------------|
|------------9--(9)--(9)\-----|---------8--(8)------|
|-2--(2)/-x--x--(x)--(x)\-x-4-|-(4)--x--x--(x)--x-6-|
|-0-------x--7--(7)--(7)\-x-2-|-(2)--x--6--(6)--x-4-|
|-----------------------------|---------------------|
|
| E  +E   E  E  +E   +E   E E   +Q   E  E  +Q   E E
|-----------------------------|---------------------|
|-----------12-(12)-(12)\-----|--------10-(10)------|
|------------x--(x)--(x)\-----|---------x--(x)------|
|-2--(2)/-x--9--(9)--(9)\-x-4-|-(4)--x--7--(7)--x-6-|
|-0-------x---------------x-2-|-(2)--x----------x-4-|
|-----------------------------|---------------------|


  +H.               E E   +H.           E E
|-----------------------|-------------------|
|-----------------------|-------------------|
|-----------------------|-------------------|
|-(6)---------------x-4-|-(4)-----------x-2-|
|-(4)---------------x-2-|-(2)-----------x-0-|
|-----------------------|-------------------|
|
| +Q   E E +E  +E   E E    Q   E  E E E E E
|-----------------------|-------------------|
|-----------------------|-------------------|
|--------9-(9)-(9)\-----|--------11---9-----|
|-(6)--x-x-(x)-(x)\-x-4-|--4---x--x---x---2-|
|-(4)--x-7-(7)-(7)\-x-2-|--2---x--9---7---0-|
|-----------------------|-------------------|
|
|  Q   E E +E  +E   E E   +H.           E E
|-----------------------|-------------------|
|--------9-(9)-(9)\-----|-------------------|
|--------x-(x)-(x)\-----|-------------------|
|--6---x-6-(6)-(6)\-x-4-|-(4)-----------x-2-|
|--4---x------------x-2-|-(2)-----------x-0-|
|-----------------------|-------------------|


  H.                      E E    H.             E E
|-----------------------------|---------------------|
|-----------------------------|---------------------|
|-----------------------------|---------------------|
|-2-----------------------x-4-|--4--------------x-6-|
|-0-----------------------x-2-|--2--------------x-4-|
|-----------------------------|---------------------|
|
| E  +E   E  E  +E   +E   E E   +Q   E  E  +Q   E E
|-----------------------------|---------------------|
|-----------------------------|---------------------|
|------------9--(9)--(9)\-----|---------8--(8)------|
|-2--(2)/-x--x--(x)--(x)\-x-4-|-(4)--x--x--(x)--x-6-|
|-0-------x--7--(7)--(7)\-x-2-|-(2)--x--6--(6)--x-4-|
|-----------------------------|---------------------|
|
| E  +E   E  E  +E   +E   E E   +Q   E  E  +Q   E E
|-----------------------------|---------------------|
|-----------12-(12)-(12)\-----|--------10-(10)------|
|------------x--(x)--(x)\-----|---------x--(x)------|
|-2--(2)/-x--9--(9)--(9)\-x-4-|-(4)--x--7--(7)--x-6-|
|-0-------x---------------x-2-|-(2)--x----------x-4-|
|-----------------------------|---------------------|


  +H.               E E   +Q   Q    Q   Q
|-----------------------|-------------------|
|-----------------------|-------------------|
|-----------------------|-------------------|
|-(6)---------------x-4-|-(4)--4----4---4---|
|-(4)---------------x-2-|-(2)--2----2---2---|
|-----------------------|-------------------|
|
| +Q   E E +E  +E   E E    Q   E  E E E E E
|-----------------------|-------------------|
|-----------------------|-------------------|
|--------9-(9)-(9)\-----|--------11---9-----|
|-(6)--x-x-(x)-(x)\-x-4-|--4---x--x---x---2-|
|-(4)--x-7-(7)-(7)\-x-2-|--2---x--9---7---0-|
|-----------------------|-------------------|
|
|  Q   E E +E  +E   E E    Q   E  E E E E E
|-----------------------|-------------------|
|--------9-(9)-(9)\-----|--------10---9-----|
|--------x-(x)-(x)\-----|---------x---x-----|
|--6---x-6-(6)-(6)\-x-4-|--4---x--7---6---2-|
|--4---x------------x-2-|--2---x----------0-|
|-----------------------|-------------------|


  H.                      E E    H.             E E
|-----------------------------|---------------------|
|-----------------------------|---------------------|
|-----------------------------|---------------------|
|-2-----------------------x-4-|--4--------------x-6-|
|-0-----------------------x-2-|--2--------------x-4-|
|-----------------------------|---------------------|
|
| E  +E   E  E  +E   +E   E E   +Q   E  E  +Q   E E
|-----------------------------|---------------------|
|-----------------------------|---------------------|
|------------9--(9)--(9)\-----|---------8--(8)------|
|-2--(2)/-x--x--(x)--(x)\-x-4-|-(4)--x--x--(x)--x-6-|
|-0-------x--7--(7)--(7)\-x-2-|-(2)--x--6--(6)--x-4-|
|-----------------------------|---------------------|
|
| E  +E   E  E  +E   +E   E E   +Q   E  E  +Q   E E
|-----------------------------|---------------------|
|-----------12-(12)-(12)\-----|--------10-(10)------|
|------------x--(x)--(x)\-----|---------x--(x)------|
|-2--(2)/-x--9--(9)--(9)\-x-4-|-(4)--x--7--(7)--x-6-|
|-0-------x---------------x-2-|-(2)--x----------x-4-|
|-----------------------------|---------------------|


  +H.               E E   +Q   Q  Q  Q
|-----------------------|---------------|
|-----------------------|---------------|
|-----------------------|---------------|
|-(6)---------------x-4-|-(4)--4--4--4--|
|-(4)---------------x-2-|-(2)--2--2--2--|
|-----------------------|---------------|
|
| +Q   E E +E  +E   E E   +Q   Q  Q  Q
|-----------------------|---------------|
|-----------------------|---------------|
|--------9-(9)-(9)\-----|---------------|
|-(6)--x-x-(x)-(x)\-x-4-|-(4)--4--4--4--|
|-(4)--x-7-(7)-(7)\-x-2-|-(2)--2--2--2--|
|-----------------------|---------------|
|
|  Q   E E +E  +E   E E   +Q   Q  Q  Q
|-----------------------|---------------|
|--------9-(9)-(9)\-----|---------------|
|--------x-(x)-(x)\-----|---------------|
|--6---x-6-(6)-(6)\-x-4-|-(4)--4--4--4--|
|--4---x------------x-2-|-(2)--2--2--2--|
|-----------------------|---------------|


  Q  Q  E E E E    Q   Q   Q   Q     Q   Q   Q   E E    Q   Q   Q   Q
|---------------|-----------------|------------------|-----------------|
|---------------|-----------------|------------------|-----------------|
|---------------|-----------------|------------------|-----------------|
|-4--4--x-x-x-x-|--2---2---2---2--|--2---2---2---2-2-|--4---4---4---4--|
|-2--2--x-x-x-x-|--0---0---0---0--|--0---0---0---0-0-|--2---2---2---2--|
|---------------|-----------------|------------------|-----------------|
|
| Q  Q  E E E E    Q   Q   Q   Q     Q   Q   Q   Q      Q   Q   Q   Q
|---------------|-----------------|------------------|-----------------|
|---------------|-12--12--12--12--|-12--12--14--14---|-10--10--10--10--|
|---------------|--x---x---x---x--|--x---x---x---x---|--x---x---x---x--|
|-4--4--x-x-x-x-|--9---9---9---9--|--9---9--11--11---|--7---7---7---7--|
|-2--2--x-x-x-x-|-----------------|------------------|-----------------|
|---------------|-----------------|------------------|-----------------|
|
| Q  Q  E E E E    Q   Q   Q   Q     Q   Q   Q   Q      Q   Q   Q   Q
|---------------|-----------------|------------------|-----------------|
|---------------|-12--12--12--12--|-12--12--14--14---|-10--10--10--10--|
|---------------|--x---x---x---x--|--x---x---x---x---|--x---x---x---x--|
|-4--4--x-x-x-x-|--9---9---9---9--|--9---9--11--11---|--7---7---7---7--|
|-2--2--x-x-x-x-|-----------------|------------------|-----------------|
|---------------|-----------------|------------------|-----------------|


   Q   Q   Q   E E   Q  Q  Q  Q    Q  Q  Q   Q     Q  Q   Q   Q
|------------------|-------------|---------------|---------------|
|------------------|-------------|---------------|---------------|
|------------------|-------------|---------------|---------------|
|--4---4---4---4-4-|-6--6--6--6--|-6--6--6---6---|-6--6---6---6--|
|--2---2---2---2-2-|-4--4--4--4--|-4--4--4---4---|-4--4---4---4--|
|------------------|-------------|---------------|---------------|
|
|  Q   Q   Q   Q     Q  Q  Q  Q    Q  Q  Q   E E   Q  Q   Q   Q
|------------------|-------------|---------------|---------------|
|-10--10--12--12---|-9--9--9--9--|-9--9--9--10-x-|---------------|
|--x---x---x---x---|-x--x--x--x--|-x--x--x---x-x-|-9--9--11--11--|
|--7---7---9---9---|-6--6--6--6--|-6--6--6---7-x-|-x--x---x---x--|
|------------------|-------------|---------------|-7--7---9---9--|
|------------------|-------------|---------------|---------------|
|
|  Q   Q   Q   Q     Q  Q  Q  Q    Q  Q  Q   E E   Q  Q   Q   Q
|------------------|-------------|---------------|---------------|
|-10--10--12--12---|-9--9--9--9--|-9--9--9--10-x-|---------------|
|--x---x---x---x---|-x--x--x--x--|-x--x--x---x-x-|-6--6---8---8--|
|--7---7---9---9---|-6--6--6--6--|-6--6--6---7-x-|-x--x---x---x--|
|------------------|-------------|---------------|-4--4---6---6--|
|------------------|-------------|---------------|---------------|


   Q   Q   Q   Q     W
|-----------------|-----------*|----|
|-----------------|-----------*|----|
|-----------------|-----------*|----|
|--6---6---6---6--|--2--------*|----|
|--4---4---4---4--|--0--------*|----|
|-----------------|-----------*|----|
|
|  Q   Q   Q   Q     W
|-----------------|-----------*|----|
|-----------------|-----------*|----|
|-13--13--14--14--|-13--------*|----|
|--x---x---x---x--|--x--------*|----|
|-11--11--12--12--|-11--------*|----|
|-----------------|-----------*|----|
|
|  Q   Q   Q   Q     W
|-----------------|-----------*|----|
|-----------------|-----------*|----|
|--9---9--11--11--|--9--------*|----|
|--x---x---x---x--|--x--------*|----|
|--7---7---9---9--|--7--------*|----|
|-----------------|-----------*|----|


Duration Legend
---------------
W - whole; H - half; Q - quarter; E - 8th; S - 16th; T - 32nd; X - 64th; a - acciaccatura
+ - note tied to previous; . - note dotted; .. - note double dotted
Uncapitalized letters represent notes that are staccato (1/2 duration)
Irregular groupings are notated above the duration line
Duration letters will always appear directly above the note/fret number it represents the
duration for.  Duration letters with no fret number below them represent rests.  Multi-
bar rests are notated in the form Wxn, where n is the number of bars to rest for.  Low
melody durations appear below the staff

Tablature Legend
----------------
 h   - hammer-on
 p   - pull-off
 b   - bend
 pb  - pre-bend
 r   - bend release (if no number after the r, then release immediately)
 /\  - slide into or out of (from/to "nowhere")
 s   - legato slide
 S   - shift slide
  - natural harmonic
[n]  - artificial harmonic
n(n) - tapped harmonic
 ~   - vibrato
 tr  - trill
 T   - tap
 TP  - trem. picking
 PM  - palm muting
\n/  - tremolo bar dip; n = amount to dip
 \n  - tremolo bar down
 n/  - tremolo bar up
/n\  - tremolo bar inverted dip
 =   - hold bend; also acts as connecting device for hammers/pulls
 <>  - volume swell (louder/softer)
 x   - on rhythm slash represents muted slash
 o   - on rhythm slash represents single note slash

Misc Legend
-----------
 |  - bar
||  - double bar
||o - repeat start
o|| - repeat end
*|  - double bar (ending)
 :  - bar (freetime)
 $  - Segno
 &  - Coda

            
            
Suggest correction
Creating personal tab
Creating personal tab
You can edit any tab online and save it as your Personal.

You can edit, replace or remove any tab part or add personal notes – all changes will be seen only by you.

Personal tabs can be accessed anytime from any device, even offline.
Learn more »
comments
print report bad tab
17 comments total. Showing first comments.
-1 reply
HH_Emo_666 242 Mar 27, 2006 05:40 AM

this is a good tab but all u did was copy off of the power tab ..

-1 reply
a7x_rocker_a7x 10 Mar 27, 2006 12:49 PM

yeah exact copy off power tab. blah!!

+1 reply
gdm09 391 Mar 27, 2006 04:21 PM

hey, if its right, its right

guest
You may want to rate the tab now too:
select rating
Wanna post a correction for this tab? Suggest correction