Oops, an error
Loading. Please wait.

Silence In Black And White album bass

1,305 views 3 this week
no commentswrite comment
1 2 3 4 5
x 5
add to favorites
×
Save as Personal and add changes to this tab that will be seen only by you. Learn more ›
×
You can save this tab as Personal to edit and correct it or add notes. All changes will be seen only by you. Learn more »
launch autoscroll
font size
0
reset
guitar tuner
edit
Autoscroll
slow
fast
+/-
esc
set tempo
stop
Author
Difficulty
Hey this is my first tab, I'm taking some tabs from other people and  fixing it up a 
but I'm giving them credit for the hard work they did for it. So enjoy

1. Life on Standby
2. Dissolve and Decay
3. Niki FM
4. The Transition
5. Blue Burns Orange
6. Silver Bullet
7. Screenwriting an Apology
8. Ohio Is For Lovers
9. Wake up Call
10. Sandpaper and Silk
11. Speeding up The Octaves
(All songs are in Standard Tuning [EADG])

1. Life on standby

Intro:
G|--------------------------------|
D|--------------------------------|
A|--------------------------------|
E|-000-000-000-000-000-000-000-xxx|

Verse 1:
G|---------------------------|
D|---------------------------|
A|----------------5-5--3-3---|
E|-000000~000000~----------0~|

G|----------------------------------|
D|----------------------------------|
A|----------------5-5--3-3----------|
E|-000000~000000~----------00-0-000-|

Interlude:
G|------|
D|------|
A|------|
E|-/3~5~|

Verse 2:
G|-------------------------------------|
D|-------------------------------------|
A|-------00-00-2/3-33-33-3/5-55-55-5/7-|
E|-00-00-------------------------------|

G|-------------------------------------|
D|-------------------------------------|
A|-------00-00-2h3333333333h5555555555-|
E|-00-00-------------------------------|

Chorus:
G|--------------------------------------------------|
D|--------------------------------------------------|
A|-33333333333333333/5-----7-----5-----3-----2h3p3-3|
E|---------------------000---000---000---000--------|

G|-----------------------------------------------------|
D|-----------------------------------------------------|
A|-33333333333333333/5-----7-----5-----3-----2h3p3-3~5~|
E|---------------------000---000---000---000-----------|

Verse 3:
G|-------------------------------------|
D|-------------------------------------|
A|-------00-00-2/3-33-33-3/5-55-55-5/7-|X2
E|-00-00-------------------------------|

G|-------------------------------------|
D|-------------------------------------|
A|-------00-00-2h3333333333h5555555555-|
E|-00-00-------------------------------|

Chorus:
G|--------------------------------------------------|
D|--------------------------------------------------|
A|-33333333333333333/5-----7-----5-----3-----2h3p3-3|
E|---------------------000---000---000---000--------|

G|-------------------------------------------------------|
D|-------------------------------------------------------|
A|-33333333333333333/5-----7-----5-----3-----2h3p3-3~5~--|
E|---------------------000---000---000---000-----------0~|

Outro:
G|--------------------------------------------|
D|--------------------------------------------|
A|-----------3333-3333-----------333333333333-|
E|-0000-0000-----------0000-0000--------------|

G|-----------------------------|
D|-----------------------------|
A|---------------3333333333333-|X3
E|-0000000000000---------------|

G|-----------------|
D|-----------------|
A|---------------3~|
E|-0000000000000---|

2. Dissolve and Decay
Intro
G|---------|
D|---------| x2
A|---------|
E|-00-0-00-|

Verse
G|-----------------------------------|
D|-----------------------------------|
A|-----------------------------------|
E|-5555\---5555\---00-0-00---00-0-00-|
                                         [these are 11's]
G|---------------------------------------------------------------------|
D|---------------------------------------------------------------------| x2
A|---------------------------------------------------------------------|
E|-555555555555555555555555-7777-8888-11111111111111111111111111111111-|

Pre-Chorus
G|-----|
D|-----|
A|-----|
E|-5---|

Chorus
G|---------------------------------------------|
D|---------------------------------------------|
A|---------------------------------------------|
E|-111111111111111-333333333333333--5--5--5--5-|

Verse                [11's]
G|-------------------------------------------|
D|-------------------------------------------|
A|-------------------------------------------|
E|-5~-----7-8--1111-1111-111---1111-1111-111-|

G|----------------------------------------------|
D|----------------------------------------------|
A|----------------------------------------------|
E|-5~-----7-8--11111111111111111111111111111111-|

G|---------------------------------------------------------------------|
D|---------------------------------------------------------------------|
A|---------------------------------------------------------------------|
E|-555555555555555555555555-7777-8888-11111111111111111111111111111111-|

Pre-Chorus
G|-----|
D|-----|
A|-----|
E|-5---|

Chorus
G|---------------------------------------------|
D|---------------------------------------------|
A|---------------------------------------------|
E|-111111111111111-333333333333333--5--5--5--5-|

G|-------------------------------------------------|
D|-------------------------------------------------|
A|-------------------------------------------------|
E|-111111111111111-333333333333333--5~--5~--5~--5~-|

[Pause]

Bridge
G|---------------------------------------------------------|
D|---------------------------------------------------------|
A|---------------------------------------------------------|
E|-5~----9979-9979--8868-8868--7757-7757--8868-888-12-10-8-|

G|---------|
D|---------| x4
A|---------|
E|-5535-0--|

G|----------------------------------------------|
D|----------------------------------------------| x2
A|----------------------------------------------|
E|-5~--5-7~--7-8~--8-10~---8-10-8-8-10-8-7-6-5~-|

Pre-Chorus
G|--------------------|
D|--------------------|
A|--------------------|
E|-5-------5-------5~-|

Chorus
G|-----------------------------------|
D|-----------------------------------|
A|-----------------------------------|
E|-11----333333333333333--5--5--5--5-|

G|------------------------------------------------------|
D|------------------------------------------------------|
A|------------------------------------------------------|
E|-111111111111111-333333333333333--5~--5~--5~--555-333-|

G|----------------------------------------------------|
D|----------------------------------------------------|
A|----------------------------------------------------|
E|-111111111111111-333333333333333--5----5----55----5-|


3. Niki F.M.
Intro
G|------------------|
D|------------------| x2
A|-4~--6-7--0~--2~--|
E|------------------|

Interlude
G|---------|
D|---------|
A|-4-------|
E|---0-5~--|

Verse 1 Part 1
G|----------------------------------|
D|----------------------------------| x1
A|-44-44---44-44---00-00---00-00-2/-|
E|----------------------------------|

Verse 1 Part 2
G|--------------------------------------|
D|---------------------------2\---------|
A|-44-44-7\--44-44-7\--00-00---00-00-2/-| x2
E|--------------------------------------|

Pre-Chorus
G|------------------|
D|------------------|
A|-4~--6~-7~-6-2-0--|
E|------------------|

G|---------------|
D|---------------|
A|-4~--7-6~--4-2-|
E|---------------|

G|---------|
D|---------|
A|-4-------|
E|---0-5~--|

Chorus
G|-----------------------------|
D|-----------------------------|
A|-4444-4444-x2--0~-2~-0~-2~---|
E|-----------------------------|

Verse 2 Part 1
G|----------------------------------|
D|----------------------------------| x2
A|-44-44---44-44---00-00---00-00-2/-|
E|----------------------------------|

Verse 2 Part 2
G|------------------------------------------|
D|------------------------------------------| x1
A|-44-44-7\--44-44-7\--00-00-[Pause]-00-00--|
E|------------------------------------------|

G|-------------------------------------|
D|---------------------------2\--------|
A|-44-44-7\--44-44-7\--00-00---00-00-2/| x1
E|-------------------------------------|

Pre-Chrous
G|---------------------|
D|---------------------|
A|-4~--6~-7~-6-2-0--4~-|
E|---------------------|

Chorus
G|--------------------------|
D|--------------------------|
A|-4444-4444-2--0~-2~-0~-2~-|
E|--------------------------|

G|---------|
D|---------|
A|-4-------|
E|---0-5~--|

G|--------------------------------|
D|--------------------------------|
A|-4444-4444-x2--0~-2~-0~-2~--4---|
E|--------------------------------|

Bridge
G|----------------|
D|----------------| x2
A|-4~--6-7--0~--2~|
E|----------------|

Build up [2nd time]
G|------------------------------|
D|------------------------------| x1
A|--------------00000000000000--|
E|00000000000000----------------|

G|-------------------------------|
D|-------------------------------| x3
A|-44-----44---22---00----22-----|
E|----00-----0----0----00----00--|

G|----------------------------------|
D|----------------------------------|
A|-44-----44---22---00----22-----4~-|
E|----00-----0----0----00----00-----|

Outro
G|----------------|
D|----------------|
A|-4~--6-7-0~--2~-|
E|----------------|

G|-----|
D|-----|
A|-0~--|
E|-----|


4. The Transition
Intro
G----------------|
D----------------|
A----2h4---------|
E----------------|

G------------------------------------------------|
D------------------------------------------------|
A----2-------4-----0------4------2------4------0-|
E-000----000----000----000----000----000----000--|

Verse x2
G----------------------------------------------------------------|
D----------------------------------------------------------------|
A4444444444444444000000000000000044444444444444442222222222222222|
E----------------------------------------------------------------|

Chorus x2
G----------------------------|
D----------------------------|
A----------------4~--2~--0~--|
E222222245555555-------------|

Pre Verse
G-----------------------------------------------------|
D-----------------------------------------------------|
A44-----44-----44-----44-----00-----00-----00------00-|
E-----------------------------------------------------|

Verse x2
G-------------------------------------------------------------------------|
D-------------------------------------------------------------------------|
A----------------2/44444444444444-2/44444444444444-22222222222222222222222|
E5555555555555555---------------------------------------------------------|


Chorus x2
G----------------------------|
D----------------------------|
A----------------4~--2~--0~--|
E222222245555555-------------|

Then play this
G--------------------------------------------------------------------------|
D--------------------------------------------------------------------------|
A44----44-----44-----44-----00-----00-----00-----00---0~---00~---00~---00~-|
E--------------------------------------------------------------------------|

Solo x3
G------------------------------------------|
D------------------------------------------|
A44-44444---44-44444---00-00000---00-0-000-|
E------------------------------------------|

Chorus x1
G----------------------------|
D----------------------------|
A----------------4~--2~--0~--|
E222222245555555-------------|

Ending
G------------------|
D------------------|
A---------------22-|
E22---44---55------|
Play until song ends


5. Blue Burns Orange
Intro (0:06)
G|------------------------------------|
D|------------------------------------|
A|-----------------0000000000000000---|
E|3333333333333333--------------------|

Verse (x2)
G|--------------------------------------------------------------------|
D|--------------------------------------------------------------------|
A|2222222222222222-0000000000000000-----------------------------------|
E|----------------------------------3333333333333333-2222222233333333-|

Pre-Chorus
G|------------------------------|
D|------------------------------|
A|22------00--------------00----|
E|----------------33------------|

G|-----------------------------------|
D|-----------------------------------|
A|22------00--------------00000000---|
E|----------------33333333-----------|

Chorus
G|---------------------------|
D|---------------------------|
A|---------------------------|
E|33333333-55555555-757-757--|

G|---------------------------|
D|---------------------------|
A|---------------------------|
E|33333333-55555555-7-5-3~---|

Verse
G|----------------------------------------------|
D|----------------------------------------------|
A|222222222222--222222222222------------0000----|
E|------------23------------23-33333333-----23--|

G|--------------------------------------------------|
D|--------------------------------------------------|
A|222222222222--222222222222------------00000000----|
E|------------23------------23-33333333-------------|

Pre-Chorus
G|------------------------------|
D|------------------------------|
A|22------00--------------00----|
E|----------------33------------|

G|-----------------------------------|
D|-----------------------------------|
A|22------00--------------00000000---|
E|----------------33333333-----------|

Chorus
G|---------------------------|
D|---------------------------|
A|---------------------------| x3
E|33333333-55555555-757-757--|

G|---------------------------|
D|---------------------------|
A|---------------------------|x1
E|33333333-55555555-7-5-3~---|

Bridge
G|------------------------------------------------------------|
D|------------------------------------------------------------|
A|2---------------0-------------------------------------------|
E|--------------------------------3---------------2-------3---|

G|-------------------------------------------------------------|
D|-------------------------------------------------------------|
A|22222222222222220000000000000000-----------------------------|
E|--------------------------------33333333333333332-------3----|

(x2 for this part below but not the last part)
G|----------------------------------------------------------------|
D|----------------------------------------------------------------|
A|222-222-222-2222-22-222-222-00------------------------------00--|
E|-------------------------------3-33-333-333-3333-33-333-333-----|

G|------------------------------------------------------------------|
D|------------------------------------------------------------------|
A|22~---00~------00~---22~--00~------------------0000000000000000---|
E|-----------33~----------------3333333333333333--------------------|

G|---------------------------------------------------------------------|
D|---------------------------------------------------------------------|
A|---------------------------------------------------------------------|
E|3-3-3-3-5-5-5-5-7-7-7-7-7-7-7-7-3-3-3-3-5-5-5-5-7-7-7-7-7-7----------|

G|----------------------------------------------------------------------|
D|----------------------------------------------------------------------|
A|----------------------------------------------------------------------|
E|33333333-55555555-757-757-33333333-55555555-7-5-3~--------------------|


6.Silver Bullet
Intro
G|----------------|
D|----------------| x3
A|----------------|
E|-4--44--44-0~---|

G|-----------------------------------------|
D|-----------------------------------------|
A|-----------------------------------------|
E|-444--44444--4444--0000--00000--0000-----|


Verse
G|----------------------------------------------------------------------|
D|----------------------------------------------------------------------|
A|----------------------------------------------------------------------|
E|-4444444-0000000-4444444-222222-0-0000000-2222222-4-4444444-0000000-4-|

G|------------------------------------------------|
D|------------------------------------------------|
A|------------------------------------------------|
E|-4444444-222222-0000000-2222222--4-4--10\--0~---|

G|---------------------------------------------|
D|---------------------------------------------|
A|------2-------2------------------------------|
E|-4424----4424----0~------4-4--7-7-7--12\--0~-|

G|--------------------------------|
D|--------------------------------|
A|------2-------2-----------------|
E|-4424----4424----2~---444-222---|

Chorus
G|----------------------------------------------------|
D|----------------------------------------------------|
A|----------------------------------------------------|
E|-00--44-44--22--44--22--00--44--44-2222222222222222-|

G|----------------------------------------------|
D|----------------------------------------------|
A|----------------------------------------------|
E|-00--44--44--22--44--22--[Pause]-0--44--44-2~-|

Verse
G|----------------------------------------------------------------------|
D|----------------------------------------------------------------------|
A|----------------------------------------------------------------------|
E|-4444444-0000000-4444444-222222-0-0000000-2222222-4-4444444-0000000-4-|

G|------------------------------------------------|
D|------------------------------------------------|
A|------------------------------------------------|
E|-4444444-222222-0000000-2222222--4-4--10\--0~---|

G|---------------------------------------------|
D|---------------------------------------------|
A|------2-------2------------------------------|
E|-4424----4424----0~------4-4--7-7-7--12\--0~-|

G|--------------------------------|
D|--------------------------------|
A|------2-------2-----------------|
E|-4424----4424----2~---444-222---|

Bridge
G|-------------|
D|-------------|
A|-------------|
E|-4--44-44-0~-|

G|--------------------------------|
D|--------------------------------| x2
A|--------------------------------|
E|-444-44444-4444-0000-00000-0000-|

D|-----------------------------------|
G|-----------------------------------|
A|-----------------------------------|
E|-444-4444-444-444-000-0000-000-000-|

G|----------------------------------|
D|----------------------------------|
A|----------------------------------|
E|-444-4444-444-444-000-000-444-222-|

Chorus
G|----------------------------------------------------|
D|----------------------------------------------------|
A|----------------------------------------------------|
E|-00--44-44--22--44--22--00--44--44-2222222222222222-|

G|----------------------------------------------|
D|----------------------------------------------|
A|----------------------------------------------|
E|-00--44--44--22--44--22--[Pause]-0--44--44-2~-|

G|---------|
D|---------|
A|---------|
E|-444-222-|

Chorus
G|----------------------------------------------------|
D|----------------------------------------------------|
A|----------------------------------------------------|
E|-00--44-44--22--44--22--00--44--44-2222222222222222-|

G|----------------------------------------------|
D|----------------------------------------------|
A|----------------------------------------------|
E|-00--44--44--22--44--22--[Pause]-0--44--44-2~-|

Outro
G|---------|
D|---------|
A|---------|
E|-4-44-4~-|

7.Screenwriting an Apoligy
INTRO
G |–----------------------------|
D |-----------------------------|
A |–-6----10-8-6-2--------------| x3
E |–----------------------------|

G |–--------------|
D |---------------|
A |2222-2222-2222-|
E |–--------------|

G |–------------------------|
D |-------------------------|
A |–-6--2---124-------------| x2
E |–------------------------|

G |–--------------------------------------------------|
D |---------------------------------------------------|
A |–66666-66666-44444-44444-22222-22222---------------| x2
E |–--------------------------------------------------|

G |–------------------------|
D |-------------------------|
A |–-6--2---1-2-4-----------| x2
E |–------------------------|

G |–------------------------|
D |-------------------------|
A |–-66666666-2222-4444-----| x2
E |–------------------------|

G |–--------------------------------------|
D |---------------------------------------|
A |–66666-66666-44444-44444-22222-22222---| x1
E |–--------------------------------------|

G |–--------------------------------------------------|
D |---------------------------------------------------|
A |–66666-66666-44444-44444-22222--1-2-4--------------| x1
E |–--------------------------------------------------|

   Break from 2:13 to 2:38

G|------------------------------------|
D|------------------------------------|
A|-6666-6666-6666------2222-2222-2222-| x2
E|------------------------------------|

G |–------------------------|
D |-------------------------|
A |–-6--2---1-2-4-----------| x2
E |–------------------------|

G |–------------------------|
D |-------------------------|
A |–-66666666-2222-4444-----| x2
E |–------------------------|

G |–------------------------|
D |-------------------------|
A |–-6666666-10-2222-4444---| x1
E |–------------------------|

G |–------------------------|
D |-------------------------|
A |–-6-6-6-6--6~~~~~~-------| x1
E |–------------------------|


8.Ohio is for Lovers
G ---------------------------------------------------|
D ---------------------------------------------------|
A ---------------------------------------------------| x3
E -7/----44424--22--44424--22--00000--22--00000--22--|

Pre chorus Part 1
G --------------------------------|
D --------------------------------|
A --------------------------------|
E 244-R-00000000--244-R-00000000--|

G -------------------------------------|
D -------------------------------------|
A -------------------------------------| x2
E -444444444444--2--000000000000--2----|

Pre chorus Part 2
G---------|
D---------|
A---------|
E x0~--2~-|

Chorus
G ----------------------------------------------|
D ----------------------------------------------|
A ----------------------------------------------|
E --44-44-x22--44-44-x22--00-00--x22--00-00--x22|

Verse x2
G --------------------------------------------------------|
D --------------------------------------------------------|
A --------------------------------------------------------|
E -444444444--222--444444444--222--00000000--222--00000000|

Pre chorus Part 1
G --------------------------------|
D --------------------------------|
A --------------------------------|
E 244-R-00000000--244-R-00000000--|

G -------------------------------------|
D -------------------------------------|
A -------------------------------------| x2
E -444444444444--2--000000000000--2----|

Pre chorus Part 2
G---------|
D---------|
A---------|
E x0~--2~-|

G ------------------------------|
D ------------------------------|
A ------------------------------| x2
E -4~~--2--4~~--2--0~~--2--0~~--|

Pre chorus Part 1
G --------------------------------|
D --------------------------------|
A --------------------------------|
E 244-R-00000000--244-R-00000000--|

G -------------------------------------|
D -------------------------------------|
A -------------------------------------| x2
E -444444444444--2--000000000000--2----|

Pre chorus Part 2
G---------|
D---------|
A---------|
E x0~--2~-|

Chorus [keep repeating till fade]
G ----------------------------------------------|
D ----------------------------------------------|
A ----------------------------------------------|
E --44-44-x22--44-44-x22--00-00--x22--00-00--x22|


9.Wake Up Call
Intro X2
G-----------------------------------------|
D-----------------------------------------|
A-4~--77-1010-7~--64647~--64647~--20207~--|
E-----------------------------------------|

Verse X2
G--------------------------------------------------------|
B--------------------------------------------------------|
A-44444444444444444444444444444-2222222222222-00000000000|
E--------------------------------------------------------|

Pre Chorus X2
G-------------------------|
B-------------------------|
A-------------------------|
E-2~--2/44~--4/55~--5/77~\|

Chorus
G-------------------------------------|
B-------------------------------------|
A-444444444-222222222-000000000--42024|
E-------------------------------------|

G-------------------------------------|
B-------------------------------------|
A-444444444-222222222-000000000--22222|
E-------------------------------------|

G-------------------------------------|
B-------------------------------------|
A-444444444-222222222-000000000--42024|
E-------------------------------------|

G------------------------------|
B------------------------------|
A-444444444-777777777-999999999|
E------------------------------|

Verse X2
G--------------------------------------------------------|
B--------------------------------------------------------|
A-44444444444444444444444444444-2222222222222-00000000000|
E--------------------------------------------------------|

Pre Chorus X2
G-------------------------|
B-------------------------|
A-------------------------|
E-2~--2/44~--4/55~--5/77~\|

Chorus
G-------------------------------------|
B-------------------------------------|
A-444444444-222222222-000000000--42024|
E-------------------------------------|

G-------------------------------------|
B-------------------------------------|
A-444444444-222222222-000000000--22222|
E-------------------------------------|

G-------------------------------------|
B-------------------------------------|
A-444444444-222222222-000000000--42024|
E-------------------------------------|

G------------------------------|
B------------------------------|
A-444444444-777777777-999999999|
E------------------------------|

Slow Part
G--------------------------------------------|
B--------------------------------------------|
A-4~---2~---4~---0~---4~---2~---4~---222222--|
E--------------------------------------------|

Faster Part
G---------------------------------------------------------------|
B---------------------------------------------------------------|
A-4444444-222222-4444444-0000000-4444444-2222222-4444444-2222222|
E---------------------------------------------------------------|


Break Down
G------------|        G------|
B------------|        B------|
A------------| x7     A------|
E-00-00-00h2p0|       E-00-00|

Chorus
G-------------------------------------|
B-------------------------------------|
A-444444444-222222222-000000000--42024|
E-------------------------------------|

G-------------------------------------|
B-------------------------------------|
A-444444444-222222222-000000000--22222|
E-------------------------------------|

G-------------------------------------|
B-------------------------------------|
A-444444444-222222222-000000000--42024|
E-------------------------------------|

G------------------------------|
B------------------------------|
A-444444444-777777777-999999999|
E------------------------------|

10. Sandpaper and Silk
Intro
G|----------------|
D|----------------| x2
A|----------------|
E|-555-55555-5555-|

G|-----------------------------------|
D|-----------------------------------|
A|-------------------------------6h7-|
E|-777-77777-7777---777-7777-7~------|

G|----------------------------------|
D|----------------------------------|
A|----------------------------------|
E|-555-55555-5555---555-55555-55555-|

Verse
G|------------------------------|
D|------------------------------| x2
A|------------------------------|
E|-9~---7-9~--12-11--7~--5-7~-\-|

Pre-Chorus
G|--------|
D|--------|
A|--------|
E|-0-0-0--|

Chorus
G|-------------------------------------------|
D|-------------------------------------------|
A|-------------------------------------------|
E|-555555555555555-777777777777777--0-0-0-9~-|

Verse
G|------------------------------|
D|------------------------------|
A|------------------------------|
E|-9~---7-9~--12-11--7~--5-7~-\-|

Pre-Chorus
G|----------|
D|----------|
A|----------|
E|-0-0-0--5-|

Chorus
G|----------------------------------------------------------|
D|----------------------------------------------------------|
A|----------------------------------------------------------|
E|-555555555555555-777777777777777--99999999999-99999999999-|

G|----------------------------------------|
D|----------------------------------------|
A|----------------------------------------|
E|-555555555555555-777777777777777--0-0-0-|

Bridge
G|------------------------------------------------------------|
D|------------------------------------------------------------|
A|--------------0~-------------0~--------------------------0~-|
E|-12-11h12p11-----9~--12\11------12-11-12/14--9~---12\11-----|

G|-------------------------------------|
D|-------------------------------------|
A|-------------------------------------|
E|-9----99----9----99----9----99----9~-|

Chorus
G|----------------------------------------------------------|
D|----------------------------------------------------------| x2
A|----------------------------------------------------------|
E|-555555555555555-777777777777777--99999999999-99999999999-|

G|------------------------------------------------------------|
D|------------------------------------------------------------|
A|------------------------------------------------------------|
E|-555555555555555-777777777777777--0-0-0-9--0-0-0-9--0-0-0-5~|


11. Speeding Up the Octaves
Intro
g|--------------------------------|
d|--------------------------------|
a|--------3-----0----2--0-23332---|
e|-0--000---000---000-----------0-|

g|----------------------|
d|----------------------|
a|-3---0---2---2-3332---|
e|--------------------0-|

Verse x2
g|----------------------------------------------------|
d|----------------------------------------------------|
a|--3-3333333333333333-0-000000000000--0-000000000000-|
e|----------------------------------------------------|

Chorus
g|--------------------------------------------|
d|--------------------------------------------|
a|-55-----33----55---------55----33----55-----|
e|-----33----33----33--0------33----11----0-0-|

Post Chorus
Play x2
g|-------------------------------------------|
d|-------------------------------------------|
a|----5----5----5-----5--0-5555555577777777--|
e|-00--000---00---000------------------------|

Verse
Play x2
g|---------------------------------------------------|
d|---------------------------------------------------|
a|-3-3333333333333333-0-000000000000--0-000000000000-|
e|---------------------------------------------------|

Chorus
g|----------------------------------------------|
d|----------------------------------------------|
a|-55-----33----55---------55----33----55-------|
e|-----33----33----33--0~-----33----11----0-0---|

Bridge
g|-------------------------------|
d|-------------------------------|
a|-3---5--75--2~-222222222222222-|
e|-------------------------------|


Bridge
Play x2
g|--------------------------------------------|
d|--------------------------------------------|
a|-333333-333--55555-555-00000-000-22222-223--|
e|--------------------------------------------|


Outro
g|----------------------------------------------------------------|
d|----------------------------------------------------------------|
a|-------------23-----------23--------------23-------------23-----|
e|-0--000000000--0-00000000----0--000000000----0--00000000---0----|

Well thats my tab .. for the last one, I couldn't figure it out so I just left it as is. =]

            
            
Suggest correction
Creating personal tab
Creating personal tab
You can edit any tab online and save it as your Personal.

You can edit, replace or remove any tab part or add personal notes – all changes will be seen only by you.

Personal tabs can be accessed anytime from any device, even offline.
Learn more »
comments
print report bad tab
guest
You may want to rate the tab now too:
select rating
Wanna post a correction for this tab? Suggest correction