Oops, an error
Loading. Please wait.

Speeding Up The Octaves bass

version 1
version 1

Whole song

Interactive

484 views 1 this week
2 commentsread comments
1 2 3 4 5
x 3
add to favorites
×
Save as Personal and add changes to this tab that will be seen only by you. Learn more ›
×
You can save this tab as Personal to edit and correct it or add notes. All changes will be seen only by you. Learn more »
launch autoscroll
font size
0
reset
guitar tuner
edit
Autoscroll
slow
fast
+/-
esc
set tempo
stop
Author
Artist: Hawthorne Heights
Song: Speeding Up The Octaves
Album: The Silence In Black and White



Intro
g|--------------------------------|
d|--------------------------------|
a|--------3-----0----2--0-23332---|
e|-0--000---000---000-----------0-|

Intro
g|----------------------|
d|----------------------|
a|-3---0---2---2-3332---|
e|--------------------0-|

Verse                                            
Play x2
g|----------------------------------------------------|
d|----------------------------------------------------|
a|--3-3333333333333333-0-000000000000--0-000000000000-|
e|----------------------------------------------------|

Chorus 
g|--------------------------------------------|
d|--------------------------------------------|
a|-55-----33----55---------55----33----55-----|
e|-----33----33----33--0------33----11----0-0-|

Post Chorus                             
Play x2
g|-------------------------------------------|
d|-------------------------------------------|
a|----5----5----5-----5--0-5555555577777777--|
e|-00--000---00---000------------------------|

Verse 
Play x2
g|---------------------------------------------------|
d|---------------------------------------------------|
a|-3-3333333333333333-0-000000000000--0-000000000000-|
e|---------------------------------------------------|

Chorus 
g|----------------------------------------------|
d|----------------------------------------------|
a|-55-----33----55---------55----33----55-------|
e|-----33----33----33--0~-----33----11----0-0---|

Bridge
g|-------------------------------|
d|-------------------------------|
a|-3---5--75--2~-222222222222222-|
e|-------------------------------|


Bridge
Play x2
g|--------------------------------------------|
d|--------------------------------------------|
a|-333333-333--55555-555-00000-000-22222-223--|
e|--------------------------------------------|


Outro
g|----------------------------------------------------------------|
d|----------------------------------------------------------------|
a|-------------23-----------23--------------23-------------23-----|
e|-0--000000000--0-00000000----0--000000000----0--00000000---0----|

            
            
Suggest correction
Creating personal tab
Creating personal tab
You can edit any tab online and save it as your Personal.

You can edit, replace or remove any tab part or add personal notes – all changes will be seen only by you.

Personal tabs can be accessed anytime from any device, even offline.
Learn more »
Give kudos to tab author, rate the tab!
1 2 3 4 5
comments
print report bad tab
2 comments total.
0 reply
HH_Emo_666 242 Apr 24, 2006 12:09 PM

dosnt go with the song

0 reply
kenziethomas13 254 Dec 08, 2015 03:03 PM

This tab didn't go with the song at all. Something is messed up. It might be the tuning. But the timing is way off too.

guest
You may want to rate the tab now too:
select rating
Wanna post a correction for this tab? Suggest correction