Oops, an error
Loading. Please wait.

This Is Who We Are tab

version 1
version 1

Whole song

Interactive

9,443 views 1 this week
11 commentsread comments
1 2 3 4 5
x 8
add to favorites
×
Save as Personal and add changes to this tab that will be seen only by you. Learn more ›
×
You can save this tab as Personal to edit and correct it or add notes. All changes will be seen only by you. Learn more »
launch autoscroll
font size
0
reset
how to read this tab
guitar tuner
edit
Autoscroll
slow
fast
+/-
esc
set tempo
stop
Difficulty
intermediate
-----------------------------------------------------------------------
	         This is Who We Are – Hawthorne Heights
-----------------------------------------------------------------------
This is my first tab and I’m only 11 years old. Nobody has tabbed this
song, so I guess I’ll give it a try. I only got guitar 2 and figure out
strumming yourself, it’s not that hard. I can’t figure out verse 1, but
hopefully I’ll have it soon.

Tuning: standard

     Intro pt 1

e|--------------------------------------------------------------------|
B|-------------7-7/--8---all this ------------10-10/--11-----all-this-|
G|-------------x-x---x-----twice--------------x---x---x-------twice---|
D|--22---------4-4/--5--------------22--------7---7/--8---------------|
A|--22------------------------------22--------------------------------|
E|--00------------------------------00--------------------------------|
    ..                              ..                 . = palm mute     
       Intro pt 2                    


e|--------------------------------------------------------------------|
B|--------------------------------------------------------------------|
G|-----5-----------------------------7------second-time-end-on--------|
D|-----5-----------------------------7--------this-chord----2~--------|
A|-----3-----------------------------5----------------------2~--------|
E|----------------------------------------------------------0~--------|
                            Do intro pt 1 and 2 twice before verse
    Pre chorus

e|--------------------------------------------------------------------|
B|--------------------------------------------------------------------|
G|--------------------------------------------------------------------|
D|--------2~---------------------------5~-----------------------------|
A|--------0~---------------------------3~-----------------------------|
E|--------------------------------------------------------------------|


    Chorus
e|--------------------------------------------------------------------|
B|------------------------------------------end-on--------------------|
G|------------5--------7----play-this---------this--------------------|
D|---2--------5--------7------twice-----------------2~----------------|
A|---2--------3--------5----------------------------2~----------------|
E|---0----------------------------------------------0~----------------|

    Verse 2

     Do verse 2x

e|--------------------------------------------------------------------|
B|--------------------------------------------------------------------|
G|----------------------------------5-about------7-about--------------|
D|--2--2-----------2--2-------------5—x13--------7-x13----------------|
A|--2--2-about-x13-2--2-about-x13---3------------5--------------------|
E|--0--0-----------0--0-----------------------------------------------|
       .              . 

Pre chorus


e|--------------------------------------------------------------------|
B|--------------------------------------------------------------------|
G|--------------------------------------------------------------------|
D|--------2~---------------------------5~-----------------------------|
A|--------0~---------------------------3~-----------------------------|
E|--------------------------------------------------------------------|

Chorus
e|--------------------------------------------------------------------|
B|------------------------------------------end-on--------------------|
G|------------5--------7----play-this---------this--------------------|
D|---2--------5--------7------twice-----------------2~----------------|
A|---2--------3--------5----------------------------2~----------------|
E|---0----------------------------------------------0~----------------|

    Bridge
    Play bridge 2x then play 2 more times without palm mute

e|--------------------------------------------------------------------|
B|--------------------------------------------------------------------|
G|---------------------5-about--5--------2--------7-about-------------|
D|--2-------2----------5—8x-----5-about--2-about--7—3x----------------|
A|--2-about-2-about----3--------3---5x---0—4x-----5-------------------|
E|--0—8x----0—8x------------------------------------------------------|
    .       .     

Do intro pt 1 twice then chorus

	Outro

e|--------------------------------------------------------------------|
B|------------7-7/-8------------10—12---------------------------------|
G|------------x-x--x------------x---x---------------------------------|
D|--2-2-------4-4/-5---2-2------7---9---------------------------------|
A|--2-2----------------2-2--------------------------------------------|
E|--0-0----------------0-0--------------------------------------------|
    . .                . .



            
            
Suggest correction
Creating personal tab
Creating personal tab
You can edit any tab online and save it as your Personal.

You can edit, replace or remove any tab part or add personal notes – all changes will be seen only by you.

Personal tabs can be accessed anytime from any device, even offline.
Learn more »
comments
print report bad tab
11 comments total. Showing first comments.
0 reply
kiefermatot 10,367 Feb 14, 2006 04:40 PM

Ehh..it's okay. You should put in a second guitar.

+1 reply
JamesHenA 81 Mar 01, 2006 12:15 PM

you really need guitar 2 and 3 since they have 3 guitarists, 2 and 3 only vary a little, and it's hard to distinguish but they're there, and really the only problems i see so far is that hawthorne always plays in dropped d tuning k? anyways for being 11 i give you credit, ok job

0 reply
greeleyestates 37 Mar 02, 2006 06:47 AM

For JamesHenA up above. Hawthorne Heights rarely plays in dropped d, they played standard tuning on there whole first album k? okay tab but some parts can be played differently which would make your tab more accurrate.

guest
Wanna post a correction for this tab? Suggest correction