Oops, an error
Loading. Please wait.

Until Her Heart Stops bass

version 1
version 1

Whole song

Interactive

305 views 1 this week
1 commentread comment
1 2 3 4 5
1 last vote to show rating
add to favorites
×
Save as Personal and add changes to this tab that will be seen only by you. Learn more ›
×
You can save this tab as Personal to edit and correct it or add notes. All changes will be seen only by you. Learn more »
launch autoscroll
font size
0
reset
guitar tuner
edit
Autoscroll
slow
fast
+/-
esc
set tempo
stop
Author
++++++++++++++++++++++++++++++++++++++++++++
| Hawthorne Heights- Until Her Heart Stops |
++++++++++++++++++++++++++++++++++++++++++++

(A Day In The Life) 

This was one of the first songs of "A Day In The Life"
The previous name of this awesome band..

EADG

Verse
"I remember the time..."
1.
G|-------------------------------------------------------------------------|
D|-------------------------------------------------------------------------|
A|-22222222-22222222-------------------------------------------------------|--x2
E|-------------------44444444-44444444-22222222-22222222-00000000-00000000-|

"My eyes open.." 
2.
G|---------------------------------------|
D|---------------------------------------|
A|-2~------------------------------------|--x2
E|-----------4~--------0~----------------|

"Remember you said.."
3.
G|-------------------------------------------------------------|
D|-------------------------------------------------------------|
A|-------------------------------------------------------------|--x2
E|-44-44-44-44-22-22-22-22-00000000-00000000-00000000-00000000-|

"Dont say.. Its over.."
4.
G|----------------------------------------------------------------------|
D|----------------------------------------------------------------------|
A|-22222222-22222x--11111111-11111x-------------------------------------|--x2
E|----------------------------------44444444-22222222-00000000-00000000-|

"Still waiting on the inside.."
5.
G|-------------------------------------------------------------------------|
D|-------------------------------------------------------------------------|
A|-------------------------------------------------------------------------|
E|-44444444-22222222-00000000-00000000-44444444-22222222-00000000-00000000-|

"Waiting on the inside.."
6.
G|-------------------------------------------------------------------|
D|-------------------------------------------------------------------|
A|-------------22-22-22-22-------------------------------------------|
E|-44444444-2~-------------44-44-44-44-22-22-22-22-00000000-00000000-|

7.
G|----------------------------------------------------------|
D|----------------------------------------------------------|
A|-22-22-22-22-------------------------------------------2~-|
E|-------------44-44-44-44-22-22-22-22-00000000-00000000----|

"From me.."
8.
G|-------------------------------------------------------------------------|
D|-------------------------------------------------------------------------|
A|-22222222-22222222-11111111-11111111-------------------------------------|--x2
E|-------------------------------------44444444-22222222-00000000-00000000-|

9.
G|---------------------------------------------------------|
D|---------------------------------------------------------|
A|---------------------------------------------------------|
E|-44444444-22222222-0000000-00000000-44444444-22222222-0~-|

            
            
Suggest correction
Creating personal tab
Creating personal tab
You can edit any tab online and save it as your Personal.

You can edit, replace or remove any tab part or add personal notes – all changes will be seen only by you.

Personal tabs can be accessed anytime from any device, even offline.
Learn more »
Give kudos to tab author, rate the tab!
1 2 3 4 5
comments
print report bad tab
1 comment total.
0 reply
laperra 10 Jun 29, 2007 12:54 PM

i love the way it sounds

guest
You may want to rate the tab now too:
select rating
Wanna post a correction for this tab? Suggest correction