Oops, an error
Loading. Please wait.

We Are So Last Year bass

1,169 views 3 this week
3 commentsread comments
1 2 3 4 5
x 3
add to favorites
×
Save as Personal and add changes to this tab that will be seen only by you. Learn more ›
×
You can save this tab as Personal to edit and correct it or add notes. All changes will be seen only by you. Learn more »
launch autoscroll
font size
0
reset
guitar tuner
edit
Autoscroll
slow
fast
+/-
esc
set tempo
stop
Author
++++++++++++++++++++++++++++++++++++++++++
| Hawthorne Heights- We Are So Last Year |
++++++++++++++++++++++++++++++++++++++++++

Someone asked for it :D
Here u go, enjoy

Tuning: EADG

Intro
1.
G|-------------------------------------------------------|
D|-------------------------------------------------------|
A|-2-4~\1----2-4~\1----------------------0~--0-0-0-0-0-0-|--x2
E|---------------------2~--2-2-2-2-2-2-2-----------------|

Verse
"I wish I could have known you better..."
2.
G|----------------------------------------------------|
D|----------------------------------------------------|
A|-222-4~-4-4-4-4-4-222-4~-4-4-4-4-4-222-0~-0-0-0-2-2-|--x2
E|----------------------------------------------------|

Pre-Chorus
"Sleep in..."
3.
G|------------------------------------------|
D|------------------------------------------|
A|-4----4-7-4-0----0-2-2-4----4-7-4-0-------|
E|---------------------------------------22-|

Chorus
"I just wanted you to know..."
4.
G|---------------------------------------------------------------------|
D|---------------------------------------------------------------------|
A|-0x----0-2x----2---------4~-4-2~-2-0x----0-2x----2---------4~-4-2~-2-|
E|-----------------4x----4---------------------------4x----4-----------|

5.
G|------------------------------------------------------------------------|
D|------------------------------------------------------------------------|
A|-0-000000-2-222222----------444-222-0-000000-2-222222-4~-4-4-444-4-4-2~-|
E|-------------------4-444444---------------------------------------------|

Outro
6.
G|-------------------------------------|
D|-------------------------------2-1---|
A|-4~-4-4-4-4-4-222-4~-4-4-4-4-4-----2-|
E|-------------------------------------|

Verse
"This dead letter..."
7.
G|----------------------------------------------------|
D|----------------------------------------------------|
A|-222-4~-4-4-4-4-4-222-4~-4-4-4-4-4-222-0~-0-0-0-2-2-|--x2
E|----------------------------------------------------|

Pre-Chorus
"Sleep in..."
8.
G|------------------------------------------|
D|------------------------------------------|
A|-4----4-7-4-0----0-2-2-4----4-7-4-0-------|
E|---------------------------------------22-|

Chorus
"I just wanted you to know..."
9.
G|---------------------------------------------------------------------|
D|---------------------------------------------------------------------|
A|-0x----0-2x----2---------4~-4-2~-2-0x----0-2x----2---------4~-4-2~-2-|
E|-----------------4x----4---------------------------4x----4-----------|

10.
G|------------------------------------------------------------------------|
D|------------------------------------------------------------------------|
A|-0-000000-2-222222----------444-222-0-000000-2-222222-4~-4-4-444-4-4-2~-|
E|-------------------4-444444---------------------------------------------|

Outro
11.
G|-------------------------------------------------------|
D|-------------------------------------------------------|
A|-2-4~\1----2-4~\1----------------------0~--0-0-0-0-0-0-|
E|---------------------2~--2-2-2-2-2-2-2-----------------|

2:24
Bridge
"When I fall asleep..."
12.
G|---------------------|
D|----2-2-1~----2-2-1x-|
A|-4~--------4~--------|
E|---------------------|

Chorus
"I just wanted you to know..."
13.
G|------------------------------------------------------------------------|
D|------------------------------------------------------------------------|
A|---000000-2-222222----------444-222-0-000000-2-222222-4~-4-4-444-4-4-2~-|
E|-------------------4-444444---------------------------------------------|

14.
G|------------------------------------------------------------------------|
D|------------------------------------------------------------------------|
A|-0-000000-2-222222----------444-222-0-000000-2-222222-4~-4-4-444-4-4-2~-|
E|-------------------4-444444---------------------------------------------|

15.
G|-------------------------|
D|-------------------------|
A|-4~-4-4-444-4-4-2~-4-44~-|
E|-------------------------|

Lyrics:

We're falling faster
This is the last year
Just a few more hours
Until we are all alone
This never happens
Changing with fashion
Just a few more hours
Until we are unknown

I wish I could have known you better
I should blame it on the weather
This was over from the start
Does it even matter?
Our situations getting worse

Sleep in, 
Sleep well, 
With this life, 
We're set to fail

I just wanted you to know
I think about you every night
When I fall asleep
You are in my dreams
And just like in a movie
The one you want to see
With a happy ending

This dead letter written on black paper
It never found her eyes
Instead of love (instead of love)
She only saw dollar signs

Sleep in, 
Sleep well, 
With this life, 
We're set to fail

With this life, 
We are set to fail

+++++++++++++++++++++++++++++++++
| RaiLeff                       |
| Underground__Dora@Hotmail.Com |
+++++++++++++++++++++++++++++++++

            
            
Suggest correction
Creating personal tab
Creating personal tab
You can edit any tab online and save it as your Personal.

You can edit, replace or remove any tab part or add personal notes – all changes will be seen only by you.

Personal tabs can be accessed anytime from any device, even offline.
Learn more »
Give kudos to tab author, rate the tab!
1 2 3 4 5
comments
print report bad tab
3 comments total.
0 reply
laperra 10 Jun 29, 2007 02:32 PM

thanks for getting the tabs for me!

0 reply
RaiLeff 12,922 Jun 30, 2007 07:18 AM

Np, if you need anymore just Pm me, greets :D

0 reply
dakota_s_ 277 Jul 27, 2007 05:43 PM

This is one of my favourtie tabs to play by hawthorne heights great job on it!

guest
You may want to rate the tab now too:
select rating
Wanna post a correction for this tab? Suggest correction