Oops, an error
Loading. Please wait.

Where Can I Stab Myself In The Ears bass

version 2
version 2

Whole song

Interactive

371 views 1 this week
3 commentsread comments
1 2 3 4 5
x 3
add to favorites
×
Save as Personal and add changes to this tab that will be seen only by you. Learn more ›
×
You can save this tab as Personal to edit and correct it or add notes. All changes will be seen only by you. Learn more »
launch autoscroll
font size
0
reset
guitar tuner
edit
Autoscroll
slow
fast
+/-
esc
set tempo
stop
-------------------------------------------------------------------------------
	Where Can I Stab Myself In The Ears - Hawthorne Heights
-------------------------------------------------------------------------------

Tabbed By : Bob Louis
e-mail: louisvilletucker@gmail.com

Tuning: Standard (E A D G) 

Intro
G|---------------------------------------------------------------------------|
D|---------------------------------------------------------------------------|
A|---------------------------------------------------------------------------|
E|---4~---4--2---2--0~---4--2---xx-------------------------------------------|

Verse 1
"I guess i could've sent...."
G|---------------------------------------------------------------------------|
D|---------------------------------------------------------------------------|
A|---------------------------------------------------------------------------|
E|---00000000000022220000000000004444222222222222220000000000000000--(x2)----|

Interlude
G|---------------------------------------------------------------------------|
D|---------------------------------------------------------------------------|
A|---------------------------------------------------------------------------|
E|---00000000000000002222444466668888----------------------------------------|

Prechorus
"Please hold me tightly..."
G|---------------------------------------------------------------------------|
D|---------------------------------------------------------------------------|
A|---------------------------------------------------------------------------|
E|---0-0-0-0-0-0-0-0-2-2-2-2-4-4-4/2-2-0-------------------------------------|

Chorus
"Forget these lungs..."
G|---------------------------------------------------------------------------|
D|---------------------------------------------------------------------------|
A|---------------------------------------------------------------------------|
E|---0-----0-----0-----0--2--4444444/22222222-0-----(x2)---------------------|

Verse 2
"Behind your back..."
G|---------------------------------------------------------------------------|
D|---------------------------------------------------------------------------|
A|---------------------------------------------------------------------------|
E|---0---0-0--0-2-4-----(x4)-------------------------------------------------|

Verse 3
"So you're the fire..."
G|---------------------------------------------------------------------------|
D|---------------------------------------------------------------------------|
A|---------------------------------------------------------------------------|
E|---4~---4--2---2--0~---4--2---xx----(x2 only do mute once)-----------------|

Breakdown 1
Micah's solo
G|---------------------------------------------------------------------------|
D|---------------------------------------------------------------------------|
A|---------------------------------------------------------------------------|
E|---0~---00---00--0~---(x2)-------------------------------------------------|

Breakdown 2
"So you're the fire..." 
G|---------------------------------------------------------------------------|
D|---------------------------------------------------------------------------|
A|---------------------------------------------------------------------------|
E|---|--00--(x10)--|--22--22--44--44--|--00--(x4)--|---0~--------------------|


Order

Intro
Verse 1
Prechorus
Chorus
Verse 2
Prechorus
Chorus
Verse 3
Breakdown 1
Breakdown 2
Prechorus
Chorus (let last note ring out)

| /  slide up
| \  slide down
| h  hammer-on
| p  pull-off
| ~  let ring
| +  harmonic
| x  Mute note
===============================================================================

            
            
Suggest correction
Creating personal tab
Creating personal tab
You can edit any tab online and save it as your Personal.

You can edit, replace or remove any tab part or add personal notes – all changes will be seen only by you.

Personal tabs can be accessed anytime from any device, even offline.
Learn more »
Give kudos to tab author, rate the tab!
1 2 3 4 5
comments
print report bad tab
3 comments total.
0 reply
HH_Emo_666 242 Dec 28, 2006 06:55 AM

u have the right idea .. but .. its wrong .. good try tho

0 reply
dakota_s_ 277 Jul 27, 2007 05:45 PM

yea im gonna have to agree with HH_Emo_666 better luck next time though! Just go over the bass part again and again until you hear it even with the music off!lol thats what i do!

0 reply
halfpastnever12 112 May 15, 2008 01:00 PM

hawthorne heights plays in drop d.
good try though

guest
You may want to rate the tab now too:
select rating
Wanna post a correction for this tab? Suggest correction