Oops, an error
Loading. Please wait.

I Just Dont Think Ill Ever Get Over You Tab

5,728 views 6 this week
1 commentread comment
1 2 3 4 5
accurate
x 7
add to favorites
launch autoscroll
font size
0
reset
how to read this tab
guitar tuner
Tab Pro tools
  • play this tab
  • loop segment
  • change instrument
  • show fretboard
  • metronome
Autoscroll
slow
fast
+/-
esc
set tempo
stop
Contributor
I didn't change the EADGBe because I'm lazy. The tuning is DGCFCE. I didn't tab out the
rythmn. Copy and paste into notepad if the alignment is off.

e|-x--x--x--x--x-----------|
B|-0--0--0--0--0-----------|
G|-2/-4/-7/-6/-2--0h2p0-0--|
D|-0--0--0--0--0-------4---|
A|-0--0--0--0--0-----------|
E|-x--x--x--x--x-----------|

e|--------------x--------------x----------|
B|--------------0--------------0----------|
G|(4)----(6)----2/4-(4)--(6)---2--2-0---0-|
D|(5)----(7)----0---(5)--(7)---0-----4----|
A|-5------7-----0----5----7----0----------|
E|-3------5-----x----3----5----x----------|

e|---------0------------x--x--x--x--x--|
B|---------0------------0--0--0--0--0--|
G|(4)-(6)--0--(4)-(6)---2/-4/-7/-9/-11-|
D|(5)-(7)--2--(5)-(7)---0--0--0--0--0--|
A|-5---7---2---5---7----0--0--0--0--0--|
E|-3---5---0---3---5----x--x--x--x--x--|

e|---------x----------|
B|---------0----------|
G|(4)-(6)--2--2-0---0-| x2
D|(5)-(7)--0------4---|
A|-5---7---0----------|
E|-3---5---x----------|

e|---------------------------x--x--x--x--x--|
B|---------------------------0--0--0--0--0--|
G|(4)-(6)-----(6)-(4)-(6)----2/-4/-7/-9/-11-|
D|(5)-(7)-(4)-(7)-(5)-(7)----0--0--0--0--0--|
A|-5---7---4---7---5---7-----0--0--0--0--0--|
E|-3---5---2---5---3---5-----x--x--x--x--x--|
comments
print report bad tab
1 comment total.
0 reply
Floor Demon wrote on July 29 2005, 12:00 am

It sounds fine, but I think he plays it in CGCFGC tuning.

I want to post or [tab]
guest
You may want to rate the tab now too:
select rating
Please do not post tabs as comments. Select "correction" instead!