Oops, an error
Loading. Please wait.

Bad As They Seem tab

version 2
version 2

Whole song

by Hayden
13,887 views 18 this week
no commentswrite comment
1 2 3 4 5
x 5
add to favorites
×
Save as Personal and add changes to this tab that will be seen only by you. Learn more ›
×
You can save this tab as Personal to edit and correct it or add notes. All changes will be seen only by you. Learn more »
launch autoscroll
font size
0
reset
how to read this tab
guitar tuner
edit
Autoscroll
slow
fast
+/-
esc
set tempo
stop
Author
Unregistered
From:blu/greenrabbi
Artist: Hayden
Song: Bad as they seem
Album:Everything I Long For
like all hayden songs, you need to tune your guitar down a full step.
(only the low three are actually played, but sometimes to may hit other
strings, so i would suggest tuning them all)
after that, tune what is now a D, (ei. the low E), to an A.
you can do this in a few ways.
1. the 10th fret on the E string should be the same as your A string,
2. tune the E string so it is the same as the A string being played
   on the second fret.
3. pluck the low E and the B strings at the same time and adjust the E
   until it they are the same. (if you decided to tune all your strings
   down)

[Verses]
       Girl of my drea------------------------|ms.........
D|-------------------------------------------|
A|-------------------------------------------|
F|-------------------------------------------|
C|--------------------------------------0----| Repeat.
G|-2-2-2-2/-7-7-7-77-0-0-0-00-0h2-0-0h2------|
A|-0-0-0-00-8-8-8-88-3-3-3-33-3---3-3--------|

[Chorus]                         [Fill]

   what do i do this for....       adore........
D|-------------------------|     |----------------------|
A|-------------------------|     |----------------------|
F|-------------------------|     |----------------------|
C|-------------------------| X4  |--------------------0-|  X2
G|-7-7-7-7-/-9--9--9--9--9-|     |-2-0-0-00-0h2-0-0h2---|
A|-8-8-8-8-/10-10-10-10-10-|     |-3-3-3-33-3---3-3-----|

[Lyrics]
[Verse 1]
Girl of my dreams
Things are as bad as they seem
She's only sixteen
Thats why she's only a dream

Woman of my dreams
Lives right down my street
Has a daughter who's sixteen
Thats why she's only a dream

[Chorus]
What do I do this for
've got to get out some more
Go down to the grocery store
Meet someone i'll adore

Someone who'll make me laugh
Someone to be my better half
Keep me warm under the sack
Share with me my midnight snack

[Verse 2]
Child of my dreams
Things are as bad as they seem
Working where I did at fourteen
making less pay it seems

(Chorus)

[Verse 3]
House of my dreams
Things are as bad as they seem
Parents house i'll stay for free
Till I'm at least 43

            
            
Suggest correction
Creating personal tab
Creating personal tab
You can edit any tab online and save it as your Personal.

You can edit, replace or remove any tab part or add personal notes – all changes will be seen only by you.

Personal tabs can be accessed anytime from any device, even offline.
Learn more »
comments
print report bad tab
guest
Wanna post a correction for this tab? Suggest correction