Oops, an error
Loading. Please wait.

More Than Alive chords

by Hayden
2,049 views 3 this week
no commentswrite comment
1 2 3 4 5
1 last vote to show rating
add to favorites
×
Save as Personal and add changes to this tab that will be seen only by you. Learn more ›
×
You can save this tab as Personal to edit and correct it or add notes. All changes will be seen only by you. Learn more »
launch autoscroll
font size
0
reset
transpose
0
reset
display chords
guitar tuner
edit
Autoscroll
slow
fast
+/-
esc
set tempo
stop
Author
Difficulty
Strumming
There is no strumming pattern for this song yet. and get +5 IQ
Hayden - More Than Alive

Tabbed by: Nick Verveniotis

Song's piano chords transcribed to guitar.


[Verse 1]

F                   C
  one day more with you alone
Dm                     C
  there's everyone but no one to show
            Dm               C
that you're more than alive 
       Bb               Am
you're more than alive


F            C
  you drive alone every night
Dm                    C
  through windows see others who'd like
      Dm                 C
to be more than alright
      Bb                 Am
yeah, more than alright


F                       C
  if you could have one minute alone
Dm                   C
  with yourself when you were young
       Dm                   C
do you think you would lie
       Bb                   Am
do you think you would lie
       Gm                   F
Do you think you would lie


[Verse 2]

2:18

F          C
  everyone backed in a corner
Dm            C
  evacuations are in order
          Dm               C
And we're leaving tonight
      Bb               Am
We're leaving tonight 
      Gm               F
We're leaving tonight

            Dm                 C
cause we're more than alright
      Bb                 F
we're more than alright
          Dm               C
and we're more than alive
      Bb               F
we're more than alive


[Instrumental 1]

Chords
======

Dm Am F Bb F C Bb


Guitar solo
===========

    1:09
e|--------------------------------------------------|
B|--------------------------------------------------|
G|------------7-9---5-----5-------5-5---------------|
D|--------5-7----------7---------------7--5--7------|
A|--5-7-8--------------------8------------------8---|
E|--------------------------------------------------|


[Instrumental 2]

Chords
======

F C Dm C


Very quiet guitar
=================

palm muted

    1:40
e|-----------------|
B|-----------------|
G|----5-5-----5-5--| x?
D|--7-7-7-7-7-7-7--|
A|-----------------|
E|-----------------|

Low guitar
==========

play with one finger sliding up and down sloppily
    
    1:47      1:54
e|---------------------------------------------------|
B|---------------------------------------------------|
G|---------------------------------------------------|
D|---------------------------------------------------|
A|---------------------------------------------------|
E|--3\--------3\----3-1--3-1-6-5\----3-1--3-1--3\2\--|

Middle guitar
=============

again, play with one finger sliding up and down, somewhat less sloppily

    1:47
e|--------------------------------------|
B|--------------------------------------|
G|--------------------------------------|
D|--10-7--10-7-12-7----10-7--10-7-10-7--|
A|--------------------------------------|
E|--------------------------------------|

High guitar
===========

sloppy slide!

    2:03
e|--------------------------------------|
B|--13-10--13-10-15-10---13-10--13-10\--|
G|--------------------------------------|
D|--------------------------------------|
A|--------------------------------------|
E|--------------------------------------|

Suggest correction
Creating personal tab
Creating personal tab
You can edit any tab online and save it as your Personal.

You can edit, replace or remove any tab part or add personal notes – all changes will be seen only by you.

Personal tabs can be accessed anytime from any device, even offline.
Learn more »
Give kudos to tab author, rate the tab!
1 2 3 4 5
comments
print report bad tab
guest
You may want to rate the tab now too:
select rating
Wanna post a correction for this tab? Suggest correction