Oops, an error
Loading. Please wait.

My Hero Is You Tab

5,172 views 3 this week
1 commentread comment
1 2 3 4 5
please rate
add to favorites
launch autoscroll
font size
0
reset
how to read this tab
guitar tuner
Tab Pro tools
  • play this tab
  • loop segment
  • change instrument
  • show fretboard
  • metronome
×
Best way to learn
"My Hero Is You"
Autoscroll
slow
fast
+/-
esc
set tempo
stop
Contributor
Difficulty
Capo
novice
4th fret
Capo on 4th Fret
Standard Tuning
During the chorus and in the song there is a chord and I have no idea what it's called 
it sounds right so for this song were gonna call it chord
A4 cause it's like an A but not
A4:
E 0
B 3
G 2
D 2
A 0
E x


Intro:
         Em        C              A          Em      C
E--------0------------------------------------0------------------0---------|
B------0----------1--------3--------1-------0----------1-----------3-------|
G----0----------0--------0--------2-------0----------0---------0-----2-0---|
D--2----------2------0-2--------2-------2----------2-------0-2-----------2-|
A-----------3-----------------0------------------3-------------------------|
E--------------------------------------------------------------------------|

Verse 1:
         Em        C              A          Em      C
E--------0------------------------------------0------------------0---------|
B------0----------1--------3--------1-------0----------1-----------3-------|
G----0----------0--------0--------2-------0----------0---------0-----2-0---|
D--2----------2------0-2--------2-------2----------2-------0-2-----------2-|
A-----------3-----------------0------------------3-------------------------|
E--------------------------------------------------------------------------|
        You  know  I  try  to     be      All  that    I can


         Em        C              A          Em      C
E--------0------------------------------------0------------0--------------|
B------0----------1--------3--------1-------0----------1---3--------------|
G----0----------0--------0--------2-------0----------0-----2--------------|
D--2----------2------0-2--------2-------2----------2-------2--------------|
A-----------3-----------------0------------------3---------0--------------|
E-------------------------------------------------------------------------|
      But  there's  a part   of me      I still  don't   understand

         Em        C              A          Em      C
E--------0------------------------------------0------------------0---------|
B------0----------1--------3--------1-------0----------1-----------3-------|
G----0----------0--------0--------2-------0----------0---------0-----2-0---|
D--2----------2------0-2--------2-------2----------2-------0-2-----------2-|
A-----------3-----------------0------------------3-------------------------|
E--------------------------------------------------------------------------|
     Why    do    I   only    see        What  I   don't   have

        Em        C              A          Em      C
E--------0------------------------------------0------------0--------------|
B------0----------1--------3--------1-------0----------1---3--------------|
G----0----------0--------0--------2-------0----------0-----2--------------|
D--2----------2------0-2--------2-------2----------2-------2--------------|
A-----------3-----------------0------------------3---------0--------------|
E-------------------------------------------------------------------------|
    When   my     reality           Its things are not that bad

      C        Am       E
Your faith has shown me that

        G
When my world goes crazy
    A4
You won't let go
         G
When the ground gets shaky
    A4
You give me hope
       G                 C
When I try to push you away
           Am    E   E E (strum E twice)
You never move, yeah

         G
Now when I start doubting and
     A4
You help me see
          G                            A4
There's a strength, and a mind, and a power in me
      C                    Am            E
Oh believe me there ain't nothing I can't do

(no chord)

My hero is you, yeah
My hero is you

Verse 2:
         Em        C              A          Em      C
E--------0------------------------------------0------------------0---------|
B------0----------1--------3--------1-------0----------1-----------3-------|
G----0----------0--------0--------2-------0----------0---------0-----2-0---|
D--2----------2------0-2--------2-------2----------2-------0-2-----------2-|
A-----------3-----------------0------------------3-------------------------|
E--------------------------------------------------------------------------|
    I  never   saw      the   way              You   sacrificed

         Em        C              A          Em      C
E--------0------------------------------------0------------0--------------|
B------0----------1--------3--------1-------0----------1---3--------------|
G----0----------0--------0--------2-------0----------0-----2--------------|
D--2----------2------0-2--------2-------2----------2-------2--------------|
A-----------3-----------------0------------------3---------0--------------|
E-------------------------------------------------------------------------|
      Who  knew  the price  you  paid   How can I make it right

   C     Am        E
I know I've gotta try

        G
When my world goes crazy
    A4
You won't let go
         G
When the ground gets shaky
    A4
You give me hope
       G                 C
When I try to push you away
           Am    E   E E (strum E twice)
You never move, yeah

         G
Now when I start doubting and
     A4
You help me see
          G                            A4
There's a strength, and a mind, and a power in me
      C                    Am            E
Oh believe me there ain't nothing I can't do

(no chord)

My hero is you, yeah
My hero is you

 Em
And I hope that you can see
       A4        Am            A
You're everything that I wanna be, ooh

one strum per chord

        G
When my world goes crazy
    A4
You won't let go
         G
When the ground gets shaky
    A4
You give me hope
        C               Am
When I try to push you away
          E
You never move, yeah

         G
Now when I start doubting and
     A4
You help me see
          G                            A4
There's a strength, and a mind, and a power in me
      C                    Am            E
Oh believe me there ain't nothing I can't do
My hero is you, yeah
My hero is you

My hero is you
comments
We did not receive enough feedback on this tab! Please rate:
print report bad tab
1 2 3 4 5
1 comment total.
0 reply
Tekken Lord wrote on September 27 2007, 07:39 pm

This tabs very accurate, thanks for tabbing it out! :D

I want to post or [tab]
guest
You may want to rate the tab now too:
select rating
Please do not post tabs as comments. Select "correction" instead!