Oops, an error
Loading. Please wait.

Dulce Basura chords

5 views 1 this week
no commentswrite comment
1 2 3 4 5
3 more votes to show rating
add to favorites
×
Save as Personal and add changes to this tab that will be seen only by you. Learn more ›
×
You can save this tab as Personal to edit and correct it or add notes. All changes will be seen only by you. Learn more »
launch autoscroll
font size
0
reset
transpose
0
reset
display chords
guitar tuner
edit
Autoscroll
slow
fast
+/-
esc
set tempo
stop
Strumming
There is no strumming pattern for this song yet. and get +5 IQ
Esta es una cancion de un rolero mexicano llamado
Haydn Hernandez,espero que les guste, es de esas rolas
llegadoras, es una balada muy facil, a dos guitarras
de las cuales solamente he sacado una, la segunda guitarra 
requintea toda la cancion,bueno ya dejemos el choro y a darle.
Antes de que se me olvide,quiero dedicarsela a una chava
muy especial (ja, ja, ja), se llama Citlali (y en realidad espero
que no se entere de esto, porque si no me van a madrear).
Todo mundo encontrara a quien dedicarsela.

intro
      G            Em           G            Em      
e------------|------------|------------|------------|
b------------|------------|------------|------------|
g------------|------------|------------|------------|
D---------0--|---------2--|---------0--|---------2--|
A--------2---|--------2---|--------2---|--------2---|
E---0-2-3----|---3-2-0----|---0-2-3----|---3-2-0----|

      C            D
------------|------------|
------------|------------|
---------0--|---------2--|
--------2---|--------0---|
---0-2-3----|---3-2-0----|
------------|------------|

Desde aqui toda la canción es siguiendo el mismo circulo,
lo unico que cambia,es  que algunas partes van rasgueadas
les indico en donde, el rasgueo es con ritmo de balada,
 
(con el primer bajo empieza la voz)

Bom,bom,bom,    bom, bom,    bom, bom,   
bom,bom,        bom, bom,    bom, bom,   uuuuh uuuh,
      G            Em           C            D
e------------|------------|------------|-----2-3----| 
b------------|--------0---|------1-----|------------|   
g--------0---|---------0--|-----0-0----|----2-------|  
D-------2----|-------2--2-|----2---2---|---0--------|
A------2-----|------2-----|---3--------|------------|  
E-0-2-3------|-3-2-0------|------------|------------| x2

(Empieza la letra, la gitarra sigue igual)

G   -   Em   -   C   -   D
Eres todo, lo que odio,

G   -   Em   -   C   -   D  (despues del D empieza rasgueado)
tu sonrisa, es estupida,

G          Em  
tus labios me engañan,

C               D
y escupen veneno,

G        Em
tus ojos me mienten,

C                D
son de serpiente,

G       Em
tu corazón,

      C                       D
se ha podrido, dejalo a los buitres,

G                Em
tu alma es basura,uuuh

C         D
no vale nada.


G        Em
Muerete, pudrete,

C          D
te quiero tanto,

      G            Em
que quisiera que murieras

C     D
otra vez.

G           Em
Vete al infierno,

C        D
maldita perra,

G          Em
eres una idiota,

C            D
lombriz de tierra.

G        Em
Muerete, pudrete,

C          D
te quiero tanto,

      G            Em
que quisiera que murieras

C     D   ( empieza de nuevo con arpegios)
otra vez.


                           Bom,bom,bom,    bom, bom,       
                            bom,bom,     bom, bom,     

      G            Em           G            Em       
e------------|------------|------------|------------|
b------------|------------|------------|------------|
g------------|------------|------------|------------|
D---------0--|---------2--|---------0--|---------2--|
A--------2---|--------2---|--------2---|--------2---|
E---0-2-3----|---3-2-0----|---0-2-3----|---3-2-0----|

bom, bom,
bom, bom,   uuuuh uuuh,
      C            D
------------|------------|
------------|------------|
---------0--|---------2--|
--------2---|--------0---|
---0-2-3----|---3-2-0----|
------------|------------|
                          pausa muy corta

G     -     Em     -     C     -     D
Eres la ezpina, que me hace sangrar,

G    -    Em    -    C    -    D  (Empieza rasgueo de nuevo)
eres la luz, que me ha de cegar,

G        Em
dulce basura,

C            D
corazon de mierda,

G             Em
demonio escondido,

C             D
En disfraz de angel.


G           Em
Vete al infierno,

C        D
maldita perra,

G          Em
eres una idiota,

C            D
lombriz de tierra.

G        Em
Muerete, pudrete,

C          D
te quiero tanto,

      G            Em
que quisiera que murieras

C     D   ( empieza de nuevo con arpegios)
otra vez.


Bom,bom,bom,    bom, bom,    bom, bom,   
bom,bom,        bom, bom,    bom, bom,   uuuuh uuuh,
      G            Em           C            D
e------------|------------|------------|-----2-3----| 
b------------|--------0---|------1-----|------------|   
g--------0---|---------0--|-----0-0----|----2-------|  
D-------2----|-------2--2-|----2---2---|---0--------|
A------2-----|------2-----|---3--------|------------|  
E-0-2-3------|-3-2-0------|------------|------------| x2    Pausa

G    -    Em    -    C    -    D
Y yo aqui, perdiendo el tiempo,

G   -   Em   -   C   -   D   (Rasguea de nuevo)
en escribirte esta canción,

G      Em
de amor,

C               D
vuelve pronto, porfavor,

G                  Em
que no se como podria,

C          D
vivir sin tu

G
Pendejeeeeeeeez,

Em        C       D      G
Muerete, Pudrete. 


Bueno mis carnales esta es una buena rola y muy facil,
cualquier duda, sugerencia, correccion,
mentada de madre o todo lo que se le paresca,
escribanle al monigote el se los agradezera con todo 
el corazon y si sacan mas rolas del haydn me las pasan,
que se pasen un buen rato y recuerden, 
'que viva la pirateria' y tambien el monigote...
y si no tienen la rola pero les late y la quieren
escuchar visiten la pagina oficial del Haydn 
Suggest correction
Creating personal tab
Creating personal tab
You can edit any tab online and save it as your Personal.

You can edit, replace or remove any tab part or add personal notes – all changes will be seen only by you.

Personal tabs can be accessed anytime from any device, even offline.
Learn more »
Give kudos to tab author, rate the tab!
1 2 3 4 5
comments
print report bad tab
guest
Wanna post a correction for this tab? Suggest correction