Oops, an error
Loading. Please wait.

Creature Walks Bass Tab

2,724 views 1 this week
1 commentread comment
1 2 3 4 5
please rate
add to favorites
launch autoscroll
font size
0
reset
guitar tuner
Autoscroll
slow
fast
+/-
esc
set tempo
stop
Help us to improve Ultimate-Guitar.com Take our survey!
×
Author
Difficulty
intermediate
Verse

G|----------------------------------------|
D|----------7-7-7-------------------------|
A|--7h9-9-9-------9-----------------------|  2 times
D|----------------------------------------|

G|----------------------------------------|
D|----------7-7-7-------------------------|
A|--7h9-9-9-------9--2-4-5----------------|
D|----------------------------------------|


whole verse 6 times


Pre Chorus

G|----------------------------------------|
D|----------------------------------------|
A|--5~~~~~-4-4-4-4-4-4-4-4----------------|
D|----------------------------------------|

Chorus

G|----------------------------------------|
D|----------------------------------------|
A|-----------2-22-222---------------------|  4 times
D|--5-55-555----------0-00-000-2-22-222---|

G|----------------------------------------|
D|----------------------------------------|
A|---9~~~~~~~----7h9~~~~~-----2-4-5-------|
D|----------------------------------------|

Verse

G|----------------------------------------|
D|----------7-7-7-------------------------|
A|--7h9-9-9-------9-----------------------|  2 times
D|----------------------------------------|

G|----------------------------------------|
D|----------7-7-7-------------------------|
A|--7h9-9-9-------9--2-4-5----------------|
D|----------------------------------------|


whole verse 4 times


Pre Chorus

G|----------------------------------------|
D|----------------------------------------|
A|--5~~~~~-4-4-4-4-4-4-4-4----------------|
D|----------------------------------------|

Chorus

G|----------------------------------------|
D|----------------------------------------|
A|-----------2-22-222---------------------|  4 times
D|--5-55-555----------0-00-000-2-22-222---|

Breakdown

G|-------------------------------------------|
D|-------------------------------------------|
A|---9p7-9p7-9p7---5-4--9p7-9p7-9p7--5-4--/9-|
D|-------------------------------------------|

G|----------------------------------------|
D|----------------------------------------|
A|--9-9-9-9-9-9-9-9-9-9-9-9-9-9-9-55--44--|
D|----------------------------------------|

G|----------------------------------------|
D|---9/11-9-11-12-11-9--------------------|
A|---------------------12-----------------|
D|----------------------------------------|

G|--------------------------------------------------------------------|
D|---------------------------------------------------------11-9-11-12-| 2 times
A|-999999999999999-222222222222222-5555555555555-777-999--------------|
D|--------------------------------------------------------------------|

G|----------------------------------------|
D|----------------------------------------|
A|---9--9--5-4--9-9-5-4------9-9--5-44-44-|
D|----------------------------------------|

G|----------------------------------------|
D|----------------------------------------|
A|---5-5-5-5-5-5-5-5-4-4-4-4-4-4-4-4------|
D|----------------------------------------|

Chorus (solo)

G|-------------------------------------------4-------------|
D|---------------------------------------------------------|
A|-----------------------------------2-22-22---------------|
D|--4p2h4--9-99\-0-00-2-222/\--4p2p4----------0-00-2-22-/\-|

Chorus

G|----------------------------------------|
D|----------------------------------------|
A|-----------2-22-222---------------------|  4 times
D|--5-55-555----------0-00-000-2-22-222---|

Outro

G|-------------------------------------------|
D|-------------------------------------------|
A|--------------------------------------5--4-|
D|--4p2h4-00000--4p2h4-000--4p2h4-00000------|

G|---------------------------------------------|
D|---------------------------------------------|
A|----------------------------------------5--4-|
D|--4p2h4-00000--4p2h4-00000--4p2h4-00000------|

G|------------------|
D|------------------|
A|------------------|
D|--4p2h4\----------|
Suggest correction
Give kudos to tab author, rate the tab!
1 2 3 4 5
comments
print report bad tab
1 comment total.
0 reply
tackzx 31 wrote on November 14 2009, 01:40 pm

Chorus
G|----------------------------------------|
D|----------------------------------------|
A|-----------2-22-222---------------------| 4 times
D|--5-55-555----------0-00-000-2-22-222---|

Should be

Chorus
G|----------------------------------------|
D|----------------------------------------|
A|-----------2-22-222---------------------| 4 times
D|--4-44-444----------0-00-000-2-22-222---|

Other than that, amazing.

guest
You may want to rate the tab now too:
select rating
Wanna post a correction for this tab? Suggest correction