Oops, an error
Loading. Please wait.

Dicephalous Bass Tab

version 1
version 1

Whole song

Interactive

1,012 views 6 this week
no commentswrite comment
1 2 3 4 5
please rate
add to favorites
launch autoscroll
font size
0
reset
guitar tuner
Tab Pro tools
  • play this tab
  • loop segment
  • change instrument
  • show fretboard
  • metronome
×
Best way to learn
"Dicephalous"
Autoscroll
slow
fast
+/-
esc
set tempo
stop
Contributor
Difficulty
Tuning
intermediate
C G C F A D
-------------------------------------------------------------------------------
			     DICEPHALOUS - He Is Legend
-------------------------------------------------------------------------------

Tabbed by: Micah Jayne
Email: micahjayne@gmail.com

Tuning: Drop C

He Is Legend - Dicephalous
From the album "It Hates You"

Enjoy!




Intro


(Don't come in until 0:16)

F|------------5-------------------|
C|--3-----5-7---8-----3-6-0-6-5-0-|
G|--------------------------------|
C|-----0-----------0--------------| X3

F|------------5----------------------|
C|--3-----5-7---8--------------------|
G|-----------------------------------|
C|-----0-----------5555555555555555\-|


Verse 1


(Just guitar)

F|-------------------|
C|-------------------|
G|-------------------|
C|-5555555555555555\-|

(Just guitar)

F|-------------------|
C|-------------------|
G|-------------------|
C|-5555555555555555\-|


Pre-chorus 1


F|--------------------------------------------------------0-2---|
C|-----------------------------3------------------------------3-|
G|-------------------------3-5----------------------------------|
C|-3333333-0-0-43333333-0---------3333333-0-0-43333333-0--------|

F|--------------------------------------------------------------|
C|-----------------------------3------------------------------4-|
G|-------------------------3-5----------------------------5-6---|
C|-3333333-0-0-43333333-0---------3333333-0-0-43333333-0--------|

F|-------------------|
C|-------------------|
G|-------------------|
C|-5555555555555555\-|


Chorus 1


F|-------------------------------------------------------------|
C|-------------------------------------------------------------|
G|-------------------------------------------------------------|
C|--8-88888888888-8-10-12-12\-77777777777777-5-55555555555555--|

F|------------------------------------------------------------------------|
C|------------------------------------------------------------------------|
G|------------------------------------------------------------------------|
C|--0-000000-4--5-7-0-12-10-0-8-8888888888\-/12-121212121212121212121212--|

F|--------------------------------------------------------------------------|
C|--------------------------------------------------------------------------|
G|--------------------------------------------------------------------------|
C|--55555555-33333333-88888888-1-1-1-1-1-1-1-1-55555555-3333333-8-7-10-7----|

F|------------------------------------|
C|------------------------------------|
G|------------------------------------|
C|--1-1-1-1-1-1-1-1--13--13-10-12--8--|


Interlude

(Just guitar)

F|-------------------|
C|-------------------|
G|-------------------|
C|-5555555555555555\-|


Verse 2


F|--------------------------|
C|--3333333-0-0-/43333333-0-|
G|--------------------------|
C|--------------------------| X3

F|------------------|
C|--3333333-0-0-/4--|
G|------------------|
C|------------------|

F|-------------------|
C|-------------------|
G|-------------------|
C|-5555555555555555\-|


Pre-chorus 2


F|--------------------------------------------------------0-2---|
C|-----------------------------3------------------------------3-|
G|-------------------------3-5----------------------------------|
C|-3333333-0-0-43333333-0---------3333333-0-0-43333333-0--------|


F|--------------------------------------------------------------|
C|-----------------------------3------------------------------4-|
G|-------------------------3-5----------------------------5-6---|
C|-3333333-0-0-43333333-0---------3333333-0-0-43333333-0--------|

F|-------------------|
C|-------------------|
G|-------------------|
C|-5555555555555555\-|


Chorus 2


F|-------------------------------------------------------------|
C|-------------------------------------------------------------|
G|-------------------------------------------------------------|
C|--8-88888888888-8-10-12-12\-77777777777777-5-55555555555555--|

F|------------------------------------------------------------------------|
C|------------------------------------------------------------------------|
G|------------------------------------------------------------------------|
C|--0-000000-4--5-7-0-12-10-0-8-8888888888\-/12-121212121212121212121212--|

F|--------------------------------------------------------------------------|
C|--------------------------------------------------------------------------|
G|--------------------------------------------------------------------------|
C|--55555555-33333333-88888888-1-1-1-1-1-1-1-1-55555555-3333333-8-7-10-7----|

F|-----------------------------------|
C|-----------------------------------|
G|-----------------------------------|
C|--1-1-1-1-1-1-1-1--0----7-6-4-10\--|


Breakdown


F|-----------------------------------------------|
C|-----------------------------------------------|
G|-------6\5---3/5---6\5-------------------------|
C|--0--0-----0-----0-----0-6-5-0-3--0-6-5-0-3-0--| X4

F|--------------------------------------------|
C|--------------------------------------------|
G|--------------------------------------------|
C|--0----------------0----------------0---3\--|

F|--------------------------------------------|
C|--------------------------------------------|
G|--------------------------------------------|
C|--0----------------0----------------0--3--1-|

F|--------------------------------------------|
C|--------------------------------------------|
G|--------------------------------------------|
C|--0---------------X0----------------0---3\--|

F|----------------------------------------------------------|
C|----------------------------------------------------------|
G|----------------------------------------------------------|
C|--0---------------00----------------0--3--1--0----0----0--|

F|---------------------------------------------------------------------------|
C|---------------------------------------------------------------------------|
G|---------------------------------------------------------------------------|
C|--7-6-5-10-3--3-3--0-0--4-3--3-3--0---------3--3-3--0-0--45555555555555555-|


Pre-chorus 3


F|---------------------------------------------------------------|
C|---------------------------------------------------------------|
G|---------------------------------------------------------------|
C|-3333333-0-0-43333333-0--0-0-0--3333333-0-0-43333333-0---------|

F|---------------------------------------------------------------|
C|---------------------------------------------------------------|
G|---------------------------------------------------------------|
C|-3333333-0-0-43333333-0--0---0--3333333-0-0-45555555555555555--|

F|-------------------|
C|-------------------|
G|-------------------|
C|--0----0----0------|




| .  palm mute
| /  slide up
| \  slide down
| h  hammer-on
| p  pull-off
| ~  vibrato
| +  harmonic
| x  Mute note
===============================================================================
comments
We did not receive enough feedback on this tab! Please rate:
print report bad tab
1 2 3 4 5
I want to post or [tab]
guest
You may want to rate the tab now too:
select rating
Please do not post tabs as comments. Select "correction" instead!