Oops, an error
Loading. Please wait.

Dinner With A Gypsy Bass Tab

version 1
version 1

Whole song

Interactive

3,577 views 9 this week
3 commentsread comments
1 2 3 4 5
please rate
add to favorites
launch autoscroll
font size
0
reset
guitar tuner
Autoscroll
slow
fast
+/-
esc
set tempo
stop
Help us to improve Ultimate-Guitar.com Take our survey!
×
Author
Difficulty
intermediate
Artist: He is Legend
Song: Dinner With A Gypsy
Tabbed by: Dan Cooper

Best band in the world!

I'm quite sure that this tab is right with the exception of figure 7. I'd bet money on 

the fact that fig. 7 is wrong but it still sounds good ;)

Figure 1
G|--------4-------4|  |---------------|----------------|
D|-----2h4-----2h4-|  |-----4------4--|----------------|
A|-2222-----222----|X2|------54-----54|-----454-----454|
E|-----------------|  |-0000----000---|-3333----3333---|

Figure 2
G|---------------------------------------------------------------------|
D|---------------------------------------------------------------------|
A|---------------------------------------------------------------------|
E|-2222222222222222000000000000000022222222222222220000000033335555-222|

Figure 3
G|-----------------|
D|-----------------|
A|-----------------|
E|-3333333355555555|

Figure 4
G|---------------------------------|
D|---------------------------------|
A|---------------------------------|
E|-7-7-777-3-3-333-0-0-000-3-3-333-|

Figure 5
G|------------------|
D|------------------|
A|------------------|
E|-2222222233335555-|

Figure 6
G|----------------------------------------------|
D|----------------------------------------------|
A|----------------------------------------------|
E|-77777777666666665555555544444444333-3-3222-2-|

Figure 7
G|----------------------------|
D|----------------------------|
A|---------------------9------|
E|-7777777777777777-555--3332-|

Figure 8
G|-----------------------------------|
D|-----------------------------------|
A|-----------------------------------|
E|-7777777777777777-33333333-55555555|

Figure 9
G|----------------------------------|
D|----------------------------------|
A|-2-22-22--2-22-22-----------------|
E|------------------0-00-00-3-33-33-|

Figure 10
G|--------------------------------------|
D|--------------------------------------|
A|-2----2--2----2-------------------6/7~|
E|------------------0----0-3----3-------|

Order:
Figure 1 x4
Figure 2 x1
Figure 3 x1
Figure 4 x4
Figure 5 x1
Figure 6 x4
Figure 2 x1
Figure 7 x3
Figure 8 x1
Figure 4 x4
Figure 1 x6
Figure 9 x1
Figure 10 x1

Enjoy and God Bless!
Suggest correction
Give kudos to tab author, rate the tab!
1 2 3 4 5
comments
print report bad tab
3 comments total.
-1 reply
AngelAshes 134 wrote on June 2 2008, 12:34 am

its wrong man
figure one is like this
Figure 1
G|--------6-------6| |-----------------|------------------|
D|-----4h6-----4h6-| |-----4--------4--|------------------|
A|-2245-----245----|X2|------54-------54|-----454-------454|
E|-----------------| |-0000----0XX00---|-3333----3XX333---|
the rest..i dunno

-1 reply
Dubanubiel 204 wrote on June 8 2008, 03:59 pm

pshhh. I was close. The rest of the song is fine though.

-1 reply
One4All77 82 wrote on July 7 2012, 09:50 pm

You're close AngelAshes, but it sounds to me more like so


G|------------6---|------------6---|
D|--------4-7-----|--------4-7-----|
A|2-2-2-5---------|--2-2-5---------|
E|----------------|----------------|

guest
You may want to rate the tab now too:
select rating
Please do not post tabs as comments. Select "correction" instead!