Oops, an error
Loading. Please wait.

Dinner With A Gypsy Tab

version 2
version 2

Intro

Interactive

3,336 views 1 this week
no commentswrite comment
1 2 3 4 5
accurate
x 3
add to favorites
launch autoscroll
font size
0
reset
how to read this tab
guitar tuner
Autoscroll
slow
fast
+/-
esc
set tempo
stop
Help us to improve Ultimate-Guitar.com Take our survey!
×
Contributor
Difficulty
demios 115
intermediate
-------------------------------------------------------------------------------
                             DINNER WITH A GYPSY - He Is Legend
-------------------------------------------------------------------------------
Tabbed by: Dave Riedstra
Email: dav0_12@hotmail.com

This is the intro/outro. There is another tab for it and it's almost the same,
I just play it in a different position with different embellishments.

Tuning: Standard

INTRO:

Rhythm guitar lick -- Backwards sweep picking. Let chord ring.
e|-2------2-----2-----2--------------------------------------------------------|
B|---0------0-----0-----0------------------------------------------------------|
G|-----2------2-----1-----0----------------------------------------------------|
D|-----------------------------------------------------------------------------|
A|-----------------------------------------------------------------------------|
E|-----------------------------------------------------------------------------|

Lead
e|-----------------------------------------------------------------------------|
B|--5/7---5-7-8-7--------------------------------------------------------------|
G|----------------7-7h8p7p6--6h7p6-------/9---7h8p7p6h7------------------------|
D|---------------------------------7-7p6---------------------------------------|
A|-----------------------------------------------------------------------------|
E|-----------------------------------------------------------------------------|

  (These notes are mostly staccatto)
e|-----------------------------------------------------------------------------|
B|-----------------------------------------------------------------------------|
G|-7---------------------------------------------------------------------------|
D|----7------------------------------------------------------------------------|
A|-------7---7h9---9-9--7--5----5h7p5p4h5p4------------------------------------|
E|------------------------------------------5/7--------------------------------|

e|-----------------------------------------------------------------------------|
B|-----------------------------------------------------------------------------|
G|-6-7-7------6-7-9b--6-7----6-7-----------------------------------------------|
D|-------9--9-------------------------7-----{9-9-9}----------------------------|
A|---------------------------------/9------------------------------------------|
E|-----------------------------------------------------------------------------|

Verse riffs
e|-------------------------------------|---------------------------------------|
B|-7-7---------------------------------|-7-7-----------------------------------|
G|-----9--6-7-6----6-7-6---------------|-----9--6-7-6-7-9--9-9-7h9p7p6h7-------|
D|--------------7--------7-9--{9-9-9}--|---------------------------------{9-9-9}|
A|-------------------------------------|---------------------------------------|
E|-------------------------------------|---------------------------------------|



OUTRO:

e|-----------------------------------------------------------------------------|
B|-5/7--10-10p8--8-8h10p8p7----------------------------------------------------|
G|------------------------------7-9---10p9p7-----------------------------------|
D|---------------------------/9--------------9---------------------------------|
A|-----------------------------------------------------------------------------|
E|-----------------------------------------------------------------------------|

e|------------10-----10h12-10----10-12bp10-------------------------------------|
B|-----10-12-----12-----------12-----------12----------------------------------|
G|-/11--------------------------------------------9-11b--10/11-----------------|
D|---------------------------------------------12-.------------14-12-12h14p12p11h12-11-|
A|---------------------------------------------.-------------------------------|
E|-----------------------------------------------------------------------------|

e|-----------------------------------------|-----------------------------------|
B|-----------------------------------------|-----------------------------------|
G|-----7---7--------9---9--------11---11---|-----7---7--------9---9---9bp7-----|
D|-7-9-.-9-.-9--7-9-.-9-.-9--7-9----9----9-|-7-9-.-9-.-9--7-9-.-9-.-9------9---|
A|-.-.---.---.--.-.---.---.--.-.---------.-|-.-.---.---.--.-.---.---.----------|
E|-----------------------------------------|-----------------------------------|

e|--------------|---------------------------------------|----------------------|
B|----12----12--|---------------------------------------|----------------------|
G|-/11---11-----|o-10h11-11--11-11h12p11-9-9\7-7\6-6---o|----------------------|
D|--------------|o-------------------------------------o|----------------------|
A|--------------|---------------------------------------|----------------------|
E|--------------|---------------------------------------|----------------------|

e|--/9-9-10p9--------------------------|--9-9-10p9-----------------------------|
B|------------10--10-------------------|-----------10--10----------------------|
G|-------------------9--9h11--11-12p11-|------------------9-9h11-9-7-6---6h7p6-|
D|-------------------------------------|---------------------------------------|
A|-------------------------------------|---------------------------------------|
E|-------------------------------------|---------------------------------------|


| /  slide up
| \  slide down
| h  hammer-on
| p  pull-off
| ~  vibrato
| +  harmonic
| x  Mute note
===============================================================================
Suggest correction new What's this?
You can suggest a correction to this tab. Community and Mods will review your correction and vote to approve or reject it.
comments
We did not receive enough feedback on this tab! Please rate:
print report bad tab
1 2 3 4 5
guest
You may want to rate the tab now too:
select rating
Please do not post tabs as comments. Select "correction" instead!