Oops, an error
Loading. Please wait.

Dinner With A Gypsy Bass Tab

version 1
version 1

Solo

Whole song

Interactive

1,793 views 3 this week
1 commentread comment
1 2 3 4 5
please rate
add to favorites
launch autoscroll
font size
0
reset
guitar tuner
Tab Pro tools
  • play this tab
  • loop segment
  • change instrument
  • show fretboard
  • metronome
×
Best way to learn
"Dinner With A Gypsy"
Autoscroll
slow
fast
+/-
esc
set tempo
stop
Contributor
Difficulty
intermediate
-------------------------------------------------------------------------------
			     dinner with a gypsy - he is legend
-------------------------------------------------------------------------------

Tabbed By : cire sirrah
e-mail: elbondeitz@verizon.net

Tuning: DADG

 this is the bass riff in the beginng and near the near of the song, enjoy

start at 0:21
G|---------------------------------------------------------------------------|
D|-------------8-----------8---------------8-----------8---------------------|
A|---------6-9---------6-9-------------6-9---------6-9-----------------------|
E|-7-7-7-7-------7-7-7---------7-7-7-7-------7-7-7---------------------------|

G|---------------------------------------------------------------------------|
D|---------------------------------------------------------------------------|
A|---------5------------5-------------4-5-4-------4-5-4----------------------|
E|-0-0-0-0---6-5--0-0-0---6-5\3-3-3-3-------3-3-3----------------------------|
             ^ repeat four times^
and repeat again four times near the end at 4:05

thanks...

comments
We did not receive enough feedback on this tab! Please rate:
print report bad tab
1 2 3 4 5
1 comment total.
+1 reply
debardeleben wrote on February 19 2009, 10:13 pm

start at 0:21
G|---------------6------------6---------------6-----------6-----------------------|
D|-------------7------------7---------------7-----------7---------------------|
A|---------5-9----------5-9-------------5-9---------5-9-----------------------|
E|-7-7-7-7--------7-7-7---------7-7-7-7--------7-7-7---------------------------|

G|---------------------------------------------------------------------------|
D|---------4p0--------4p0----------------------------------------------------------|
A|------------4-----------4-----------4-5-4-------4-5-4----------------------|
E|-0-0-0-0------000-0--------3-3-3----------333-3---------------------------|
^ repeat four times^

I want to post or [tab]
guest
You may want to rate the tab now too:
select rating
Please do not post tabs as comments. Select "correction" instead!