Oops, an error
Loading. Please wait.

Dixie Wolf The Seduction Of Tab

version 2
version 2

Whole song

Interactive

743 views 1 this week
1 commentread comment
1 2 3 4 5
please rate
add to favorites
launch autoscroll
font size
0
reset
how to read this tab
guitar tuner
Autoscroll
slow
fast
+/-
esc
set tempo
stop
Help us to improve Ultimate-Guitar.com Take our survey!
×
Contributor
Tuning
C G C F A D
Intro
D|-------------|
A|-------------|
F|-------------|
C|--5-2-0-2~~--|
G|--5-2-0-2~~--|
C|--5-2-0-2~~--|

|--------------------------------------|
|--------------------------------------|
|--x-x-x---------7-9-9-x---------------|
|--x-x-x--2-x-x--7-9-9-x--5-5-x-7---5--|x3
|--x-x-x--2-x-x--5-7-7-x--5-5-x-7---5--|
|---------2-x-x-----------5-5-x-7---5--|

|----------------------------------------------|
|----------------------------------------------|
|---------7-9-9-x------------------------------|
|--2-x-x--7-9-9-x------------------------------|
|--2-x-x--5-7-7-x------------------------------|
|--2-x-x----------8---5-7-5-7-5~~~~~----5-5-5--|

|-----------------------------------------|
|-----------------------------------------|
|-----------------------------------------|
|--2---2-5p2---2-5p2---2-5p2---2-5p2---1--|x3
|-----------------------------------------|
|-----------------------------------------|

|----------------------------------|
|----------------------------------|
|----------------------------------|
|--2---2-5p2---2-5p2---5--7--8--9--|
|---------------------—5--7--8--9--|
|----------------------5--7--8--9--|


Verse
|-----------------------------------------|
|-----------------------------------------|
|-----------------------------------------|
|-----------------------------------------|x3
|-----------------------------------------|
|--2---2-5p2---2-5p2---2-5p2---2-5p2---1--|

|----------------------------------|
|----------------------------------|
|----------------------------------|
|----------------------------------|
|----------------------5--7--8--9--|
|--2---2-5p2---2-5p2---5--7--8--9--|


Repeat verse


Pre-chorus
 gtr1
|-------------------------|
|-------------------------|
|-------------------------|
|---5~~~~---------7~~~~---|
|---5~~~~---------7~~~~---|
|---5~~~~---------7~~~~---|
|gtr2                     |
|-------------------------|
|-------------------------|
|-------------------------|
|---5~~~~-----------------|
|-----------------4~~~~---|
|-------------------------|


Chorus
gtr1
|------------------------------------------------|         ---------------|
|------------------------------------------------|         ---------------|
|-----------------------------------5------------|         --5------------|
|--2----------0----------7----------5-----0------|         --5-----0------|
|--2----------0----------7----------3-----0------|         --3-----0------|
|--2----------0----------7----------------0------|         --------0------|
|                                                |                        |
|gtr2                                            |x2 then                 |
|------------------------------------------------|         ---------------|
|------------------------------------------------|         ---------------|
|------------------------------------------------|         ---------------|
|-/6~~~-6-4---------------------b5d4---4-5-/9-7--|         ----4-5-/10-9--|
|-----------7-5-7p5p4----4-5-7-------7-----------|         --7------------|
|------------------------------------------------|         ---------------|


Post Chorus
|--------------------------------------------------------------|
|--------------------------------------------------------------|
|--------------------------------------------------------------|
|--------------------------------------------------------------|x4
|--------------------------------------------------------------|
|--2~~-0-2-0-2~~-0-2-0-2-1-0--7--6-5--0-0-0--7--8-9---0-0-0-0--|
pm                                    ^ ^ ^           ^ ^ ^ ^


Break
 gtr1
|---------------------------------------------------------|
|------------------------------------------------10b12~~--|
|---------------------9-9-12p9---9-12p9---9-12p9----------|
|---------------------------------------------------------|
|---------------------------------------------------------|
|---------------------------------------------------------|
|                                                         |
|gtr2                                                     |
|---------------------------------------------------------|
|---------------------------------------------------------|
|---------------------0~~~~~------------------------------|
|---------------------0~~~~~------------------------------|
|---------------------0~~~~~------------------------------|
|--2~~~~~~~~------------------------------x\\\\\\---------|


Verse


Pre-chorus 2
 gtr1
|-------------------------|
|-------------------------|
|-------------------------|
|---5~~~~---------7~~~~---|
|---5~~~~---------7~~~~---|
|---5~~~~---------7~~~~---|
|gtr2                     |
|-------------------------|
|-------------------------|
|-------------------------|
|---5~~~~---------7~~~~---|
|-------------------------|
|-------------------------|


Chorus

Post Chorus


Interlude
 gtr1
|-----------------------------------------------------------------------------|
|-----------------------------------------------------------------------------|
|-----------------------------------------------------------------------------|
|--5-------------9-------------9-------------12-------------------------------|
|--3-------------6-------------7-------------10-------------------------------|
|-----------------------------------------------------------------------------|
|                                                                             |
|gtr2                                                                         |
|-----------------------------------------------------------------------------|
|-----------------------------------------------------------------------------|
|-----------------------------------------------------------------------------|
|--2~~~~~~~---/5-4~~~~~~~---/7-5~~~~~~---5-7-9h10p9h10p9h10p9h10p9h10p9h10p9--|
|-----------------------------------------------------------------------------|
|-----------------------------------------------------------------------------|

 gtr1
|-----------------------------------------------------------------------------|
|-----------------------------------------------------------------------------|
|-----------------------------------------------------------------------------|
|--5-------------9-------------9-------------12-------------------------------|
|--3-------------6-------------7-------------10-------------------------------|
|-----------------------------------------------------------------------------|
|                                                                             |
|gtr2                                                                         |
|-----------------------------------------------------------------------------|
|-----------------------------------------------------------------------------|
|-----------------------------------------------------------------------------|
|--2~~~~-4/5-5h7p4~~~~-5/7-7h9p5~~~~~~~~-5-7-9h10p9h10p9h10p9h10p9h10p9h10p9--|
|-----------------------------------------------------------------------------|
|-----------------------------------------------------------------------------|

|-------------------------------------------------------------------|
|-------------------------------------------------------------------|
|-------------------------------------------------------------------|
|--2-2---2-2-2---2-2-2---2-2-2---2-4-4---4-4-4---4-4-4---4-4-4---4--|
|--3-3---3-3-3---3-3-3---3-3-3---3-5-5---5-5-5---5-5-5---5-5-5---5--|
|-------------------------------------------------------------------|
pm ^ ^   ^ ^ ^   ^ ^ ^   ^ ^ ^   ^ ^ ^   ^ ^ ^   ^ ^ ^   ^ ^ ^   ^

--------------------------------------------------------------------|
--------------------------------------------------------------------|
--------------------------------------------------------------------|
--5-5---5-5-5---5-5-5---5-5-5---5-9-9---9-9-9---9-9-9---9-9-9---9---|x2
--7-7---7-7-7---7-7-7---7-7-7---7-1010--101010--101010--101010--10--|
--------------------------------------------------------------------|
  ^ ^   ^ ^ ^   ^ ^ ^   ^ ^ ^   ^ ^ ^   ^ ^ ^   ^ ^ ^   ^ ^ ^   ^

Then
-------------------------------------------------------------------|
-------------------------------------------------------------------|
-------------------------------------------------------------------|
--101010101010101010101010101010109-9-9-9-9-9-9-9-131313131313b14--|
-------------------------------------------------------------------|
-------------------------------------------------------------------|


Outro (x2 with wah then x6 without)
|------------------------------------------------------------------|
|------------------------------------------------------------------|
|------------------------------------------------------------------|
|----------------------------8p0-0----------------------------8p0--|
|----------------------------8p0-0----------------------------8p0--|
|--2~~-2-2-2-0-2-2-2-0-2-2-2-8p0-0-2~~-2-2-2-0-2-2-2-5-5-5-5--8p0--|


------|
------|
------|
------|
------|
--2\--|


Key
---
x - scratch
/ - slide up
\ - slide down
b - bend
d - depress bend
h – hammer on
p – pull off
~ - let ring
x\\\ - pick scrape
comments
We did not receive enough feedback on this tab! Please rate:
print report bad tab
1 2 3 4 5
1 comment total.
0 reply
millarso 2,871 wrote on February 19 2013, 08:13 pm

Pretty good tab, but I would replace the...
|-4-| with |-4-|
|-5-| with |-6-| in that 2nd to last part

I want to post or [tab]
guest
You may want to rate the tab now too:
select rating
Please do not post tabs as comments. Select "correction" instead!