Oops, an error
Loading. Please wait.

Electronic Throat Tab

version 1
version 1

Intro

Whole song

Interactive

1,789 views 1 this week
1 commentread comment
1 2 3 4 5
x 4
add to favorites
launch autoscroll
font size
0
reset
how to read this tab
guitar tuner
Autoscroll
slow
fast
+/-
esc
set tempo
stop
Help us to improve Ultimate-Guitar.com Take our survey!
×
Author
Difficulty
Tuning
novice
C G C F A D
-------------------------------------------------------------------------------
                         Electronic Throat - He Is Legend
-------------------------------------------------------------------------------
Tabbed by:Ryan Callahan
Email: adrenalinerush12@hotmail.com

if you have any questions or comments please email me!!
by the way, this is only guitar 1 and only the little solo at the beginning. I'm tabbing 
by ear but it sounds pretty much right when you play it!
enjoy!

{{{{{{Tuning: Dropped C}}}}}}}
DON'T FORGET TO TUNE IT TO DROPPED C OR ELSE IT WON'T SOUND RIGHT!!
e|--------------------------------------------------------------------|
B|--10--10----------------------------10--10--------------------------|
G|---9b----9--7----------------7-9-----9b----9-7----------------------|
D|---------------10--7-10-7-10-------------------10-7-10-7-5-3-3p5p3--|
A|--------------------------------------------------------------------|
E|----------------------------------0---------------------------------|


| /  slide up
| \  slide down
| h  hammer-on
| p  pull-off
| ~  vibrato
| +  harmonic
| x  Mute note
===============================================================================
Suggest correction
comments
print report bad tab
1 comment total.
0 reply
onslaughton 43 Jun 03, 2007 12:43 PM

pretty close this is wat i use

e|-----------------------------------------------------------------|
B|---10----------------------------------10------------------------|
G|9b---9b---7---5----5---5----5bv-----9b----9b--7-5---5---5--------|
D|----------------7----7----7-----------------------7---7---7-6-5-3h5p5|
A|------------------------------------------------------------------|
E|----------------------------------0-------------------------------|

well the d got off the line but u no wat i mean and it is in drop c dats wat i use i got it by ear so i dont no if its 100% but sound right

guest
You may want to rate the tab now too:
select rating
Wanna post a correction for this tab? Suggest correction