Oops, an error
Loading. Please wait.

Electronic Throat Tab

version 2
version 2

Intro

Whole song

Interactive

865 views 1 this week
1 commentread comment
1 2 3 4 5
2 more votes to show rating
add to favorites
launch autoscroll
font size
0
reset
how to read this tab
guitar tuner
Autoscroll
slow
fast
+/-
esc
set tempo
stop
Help us to improve Ultimate-Guitar.com Take our survey!
×
Difficulty
novice
------------------------------------------------------------------------------
                         Electronic Throat - He Is Legend
-------------------------------------------------------------------------------
Guitar 1

D|----------------------------------------------------------------------|
A|--7--10----------------------------7--10------------------------------|
F|---9b----9--7----------------5-7~---9b---9-7--------------------------|
C|---------------10--7-10-7-10-----------------10-7-10-7-5-3-3p5p3------|
G|----------------------------------------------------------------------|
C|----------------------------------0-----------------------------------|
PM                .     .    .      .           .    .

| /  slide up
|   slide down
| h  hammer-on
| p  pull-off
| ~  vibrato
| +  harmonic
| x  Mute note


Tabbed By:
Abraham Carrillo
Email:
SchecterGT916@sbcglobal.net

Its pretty close to the songs intro but if anyones got any changes email me...
Suggest correction
Give kudos to tab author, rate the tab!
1 2 3 4 5
comments
print report bad tab
1 comment total.
0 reply
dranz1212 10 Apr 21, 2008 12:57 PM

the 7 at the beginning of the tab is wrong besides that good tab

guest
You may want to rate the tab now too:
select rating
Wanna post a correction for this tab? Suggest correction