Oops, an error
Loading. Please wait.

Electronic Throat Tab

version 1
version 1

Whole song

Interactive

3,486 views 3 this week
2 commentsread comments
1 2 3 4 5
accurate
x 3
add to favorites
launch autoscroll
font size
0
reset
how to read this tab
guitar tuner
Autoscroll
slow
fast
+/-
esc
set tempo
stop
Help us to improve Ultimate-Guitar.com Take our survey!
×
Author
Difficulty
Tuning
intermediate
D A D G B E
He Is Legend
Electronic Throat
Suck Out The Poison

I couldnt find any tabs for this in Drop D, so I decided to do it myself.

This is an awesome song and has a really southern sound to it. i only have
the intro for now but ill try to get more later.

b bend
~ let it ring
. palm mute
^ pinch harmonic
h hammer on
p pull off

|--------------------------------------------------------|
|----8------------------------8--------------------------|
|-7b~~~7b-5-----------5b~--7b~~~7b-5---------------------|
|-----------8-5-8-5-8----------------8-5-8-5-------------|
|--------------------------------------------8-6-6h8p6---|
|--------------------------------------------------------|
              .   .                    .   . . . 

|--------------------------------------------------------|
|----8------------------------8--------------------------|
|-7b~~~7b-5-----------5^~--7b~~~7b-5---------------------|
|-----------8-5-8-5-8----------------8-5-8-5-------------|
|--------------------------------------------8-6-6h8p6---|
|--------------------------------------------------------|
              .   .                    .   . . . 


you can get the timings and how far to bend the strings.

i might put more up later. i just wanted to put one up in Drop D.

PLEASE RATE!!!


Suggest correction
Give kudos to tab author, rate the tab!
1 2 3 4 5
comments
print report bad tab
2 comments total.
-1 reply
birdman267 142 wrote on August 8 2008, 04:00 pm

There's absolutely no significance to you posting this in "drop D".

You don't use the D string one time in this tab.

+2 reply
!normajean! 468 wrote on August 11 2008, 02:23 pm

true. but if someone played it thinking it was in Drop C, it would sound a step lower.

guest
You may want to rate the tab now too:
select rating
Wanna post a correction for this tab? Suggest correction