Oops, an error
Loading. Please wait.

I Am Hollywood Bass Tab

version 1
version 1

Whole song

Interactive

2,078 views 3 this week
1 commentread comment
1 2 3 4 5
excellent!
x 3
add to favorites
launch autoscroll
font size
0
reset
guitar tuner
Tab Pro tools
  • play this tab
  • loop segment
  • change instrument
  • show fretboard
  • metronome
Autoscroll
slow
fast
+/-
esc
set tempo
stop
Contributor
Difficulty
Tuning
intermediate
D A D G B E
He Is Legend - I am Hollywood

Intro 4x
G|------------|
D|------------|
A|------------|
D|--3-4-5-0~--|

1st Verse 8x
G|-----------------------|
D|-----------------------|
A|-----------333---5555--|
D|--3-4-5-0-----666------|

break
G|------------|
D|------------|
A|------------|
D|--3-4-5-0---|


Breakdown (listen for the bending) 3x
G|--------------------------|
D|--------------------------|
A|--------------------------|
D|---------------------0----|

last one let ring
G|--------------------------|
D|--------------------------|
A|--------------------------|
D|---------------------0~~--|

Breakdown continued 2x
G|----------------------------------|
D|----------------------------------|
A|----------------------------------|
D|--0--0-00--0-00--0-00--00-0-0-00--|


Pre-verse
G|-----------------------|
D|-----------------------|
A|-----------333---5555--|
D|--3-4-5-0-----666------|

Verse 2
|--------------------|
|--------------------|
|-----------3---5----|
|--3-4-5-0----6------|

break
G|------------|
D|------------|
A|------------|
D|--3-4-5-0---|

bridge 
G|-----------------------------------|
D|-----------------------------------|
A|--------0------------------3-------|
D|--3h4h5----------------------6-7---|

G|-------|
D|-------|
A|-3-----|
D|---6-7-|

brigde continued
G|--------------------------|
D|--------------------------|
A|--3-5-------5-3h5-3---0---|
D|------6-3p0---------6-----|

Bass Solo part 2x
G|-----------------------------------|
D|-----------------------------------|
A|----------------------------1-1-3--|
D|--202520202027202020252020---------|

Repeat this until the end of the palm muting
G|---------------------------------|
D|---------------------------------|
A|----------------------------1-3--|
D|--202520202027202020252020-------|

Breakdown ("i am hollywood, watch were you point your finger")
|-----------------------------------------------------------------|
|--------------------------------------------------------0---0----|
|--2-0-2-555-2-0-2-0-2-0-2-777-2-0-2-0-2-0-2-555-2-0-2-0---1---3--|
|--2-0-2-555-2-0-2-0-2-0-2-777-2-0-2-0-2-0-2-555-2-0-2-0----------|

3x
G|------------|
D|------------|
A|------------|
D|--3-4-5-0~--|

break 
G|------------|
D|------------|
A|------------|
D|--3-4-5-0---|

again
G|-----------------------|
D|-----------------------|
A|-----------333---5555--|
D|--3-4-5-0-----666------|

End part
G|----------------------------------|
D|----------------------------------|
A|----------------------------------|
D|--0--0-00--0-00--0-00--00-0-0-00--|

thats about right..i'd like to thank  ARSEFACE for his guitar tab helped me out allot
comments
We did not receive enough feedback on this tab! Please rate:
print report bad tab
1 2 3 4 5
1 comment total.
0 reply
AngelAshes wrote on December 5 2007, 03:02 pm

huge mistake, shouldve been this


|-----------------------------------------------------------------|
|--------------------------------------------------------0---0----|
|----------------------------------------------------------1---3--|
|--2-0-2-555-2-0-2-0-2-0-2-777-2-0-2-0-2-0-2-555-2-0-2-0----------|

I want to post or [tab]
guest
You may want to rate the tab now too:
select rating
Please do not post tabs as comments. Select "correction" instead!