Oops, an error
Loading. Please wait.

Seduction Tab

version 1
version 1

Whole song

Interactive

9,119 views 6 this week
9 commentsread comments
1 2 3 4 5
worth learning
x 7
add to favorites
launch autoscroll
font size
0
reset
how to read this tab
guitar tuner
Tab Pro tools
  • play this tab
  • loop segment
  • change instrument
  • show fretboard
  • metronome
×
Best way to learn
"Seduction"
Autoscroll
slow
fast
+/-
esc
set tempo
stop
Contributor
Difficulty
intermediate
DROP DIZZLE (drop D)


Intro-izzle  (note, the intro is not correct cause shit is gay and i cant hear it right, 
i just made that part muted
                 rep 4times             ...pic slide to verse

E|---------------------------------|   |-----------|
B|---------------------0-----------|   |-----------|
G|---5---5-5/7--7-7-7--0-x-x-x-x-x-|   |-----------|
D|---x---x-x-x--x-x-x--0-x-x-x-x-x-|   |-----------|
A|---3---3-3/5--5-5-5--0-x-x-x-x-x-|   |---xx\-----|
D|---------------------------------|   |---xx\-----|


Verse

E|-------------------------------------|
B|--5---5--5--5--7--7--7--10-----------|
G|--5---5--5--5--7--7--7--8------------|
D|--3---3--3--3--5--5--5--8---8-8-8--5-|
A|----------------------------8-8-8--5-|
D|----------------------------8-8-8--5-|

E|-------------------------------------|
B|--5---5--5--5--7--7--7--10-----------|
G|--5---5--5--5--7--7--7--8------------|
D|--3---3--3--3--5--5--5--8---8-8-8--5-|
A|----------------------------8-8-8--5-|
D|----------------------------8-8-8--5-|

E|---------------------------------------------------------------------|
B|---------------------------------------------------------------------|
G|--5---5--5--5--7--7--7--10------------12/14-14-14--9-9-9/10-10-10----|
D|--5---5--5--5--7--7--7--10--8-8-8-5---x--x--x--x---x-x-x-x--x--x-----|
A|--3---3--3--3--5--5--5--8---8-8-8-5---10/12-12-12--7-7-7/8--8--8---x\|
D|----------------------------8-8-8-5--------------------------------x\|

E|------------------------------------|
B|--5---5--5--5--6--6--6--10----------|
G|--5---5--5--5--7--7--7--10----------|
D|--x---x--x--x--x--x--x--x---8-8-8-5-|
A|--3---3--3--3--5--5--5--8---8-8-8-5-|
D|----------------------------8-8-8-5-|

E|------------------------------------|
B|--5---5--5--5--6--6--6--10----------|
G|--5---5--5--5--7--7--7--10----------|
D|--x---x--x--x--x--x--x--x---8-8-8-5-|
A|--3---3--3--3--5--5--5--8---8-8-8-5-|
D|----------------------------8-8-8-5-|

E|------------------------------------------------------------------------|
B|--5---5--5--5--6--6--6--10----------------------------------------------|
G|--5---5--5--5--7--7--7--10-----------12/14-14-14-14--9-9-9/10-10-10-----|
D|--x---x--x--x--x--x--x--x---8-8-8-8--x--x--x--x--x---x-x-x-x--x--x------|
A|--3---3--3--3--5--5--5--8---8-8-8-8--10/12-12-12-12--7-7-7/8--8--8------|
D|----------------------------8-8-8-8---------------------------------12\-|


Bridge  ...play twice

E|-------------------------------------------------|
B|-------------------------------------------------|
G|-------------------------------------------------|
D|--3--0--------------------3--0-------------------|
A|--3--0--0h3h4h5--0---8*---3--0--0h3h4h5--0---8*--|
E|--3--0--------------------3--0-------------------|
                   .                       .

E|-------------------------------------------------|
B|-------------------------------------------------|
G|-------------------------------------------------|
D|--3--0-------------------------------------------|
A|--3--0--0h3h4h5--0---8*--------------------------|
D|--3--0--------------------6-0-5-0---0-6-0-5-3~~~~|
                   .

Chorus  ..play twice

E|---------------------------------------------|
B|---------------------------------------------|
G|--14---10---9---5/7--7-7-7-7-7---5--7--10-7--|
D|--x----x----x---x-x--x-x-x-x-x---x--x--x--x--|
A|--12---8----7---3/5--5-5-5-5-5---3--5--8--5--|
D|---------------------------------------------|

E|--------------------------------------------------------|
B|--------------------------------------------------------|
G|--14---10---9---5--5/7-7-7-7-7-7---5/10-10-10-10-10-10--|
D|--x----x----x---x--x-x-x-x-x-x-x---x-x--x--x--x--x--x---|
A|--12---12---7---3- 3/5-5-5-5-5-5---3/8--8--8--8--8--8---|
D|--------------------------------------------------------|

verse again... kinda

E|-------------------------------------|
B|--5---5--5--5--7--7--7--10-----------|
G|--5---5--5--5--7--7--7--8------------|
D|--3---3--3--3--5--5--5--8---8-8-8--5-|
A|----------------------------8-8-8--5-|
D|----------------------------8-8-8--5-|

E|-------------------------------------|
B|--5---5--5--5--7--7--7--10-----------|
G|--5---5--5--5--7--7--7--8------------|
D|--3---3--3--3--5--5--5--8---8-8-8--5-|
A|----------------------------8-8-8--5-|
D|----------------------------8-8-8--5-|

E|----------------------------------------------------------------------|
B|----------------------------------------------------------------------|
G|--5---5--5--5--7--7--7--10------------12/14-14-14--9-9-9/10-10-10-----|
D|--5---5--5--5--7--7--7--10--8-8-8-5---x--x--x--x---x-x-x-x--x--x------|
A|--3---3--3--3--5--5--5--8---8-8-8-5---10/12-12-12--7-7-7/8--8--8------|
D|----------------------------8-8-8-5--------------------------------12\|


2nd bridge

E|-------------------------------------------------|
B|-------------------------------------------------|
G|-------------------------------------------------|
D|--3--0--------------------3--0-------------------|
A|--3--0--0h3h4h5--0---8*---3--0--0h3h4h5--0---8*--|
E|--3--0--------------------3--0-------------------|
                   .                       .
E|-------------------------------------------------|
B|-------------------------------------------------|
G|-------------------------------------------------|
D|--3--0-------------------------------------------|
A|--3--0--0h3h4h5--0---8*--------------------------|
D|--3--0--------------------6-0-5-0---0-6-0-5-3~~~~|
                   .
E|-------------------------------------------------|
B|-------------------------------------------------|
G|-------------------------------------------------|
D|--3--0--------------------3--0-------------------|
A|--3--0--0h3h4h5--0---8*---3--0--0h3h4h5--0---7*--|
E|--3--0--------------------3--0-------------------|
                   .                       .
E|-------------------------------------------------|
B|-------------------------------------------------|
G|-------------------------------------------------|
D|--3--0-------------------------------------------|
A|--3--0--0h3h4h5--0-------------------------------|
D|--3--0---------------6~~~~~~~~~~~~~~~~~~~~~~~~~~-|
                   .

BREAKDIZOWN!!  ...play twice

E|--------------------------------------------------------------------|
B|--------------------------------------------------------------------|
G|--------------------------------------------------------------------|
D|--------------------------------------------------------------------|
A|--------------------------------------------------------------------|
D|-6-0-5-0---0-6-0-5-3---0-3-4-5-0---6-0-5-0---0-6-0-5-3---0--3-4-5-0-|

E|--------------------------------------------------------------------|
B|--------------------------------------------------------------------|
G|--------------------------------------------------------------------|
D|--------------------------------------------------------------------|
A|--------------------------------------------------------------------|
D|-6-0-5-0---0-6-0-5-3---0-3-4-5-0---6-0-5-0---0-6-0-5-3~~~~~~~~~~~~~-|


Chorus

E|---------------------------------------------|
B|---------------------------------------------|
G|--14---10---9---5/7--7-7-7-7-7---5--7--10-7--|
D|--x----x----x---x-x--x-x-x-x-x---x--x--x--x--|
A|--12---8----7---3/5--5-5-5-5-5---3--5--8--5--|
D|---------------------------------------------|

E|--------------------------------------------------------|
B|--------------------------------------------------------|
G|--14---10---9---5--5/7-7-7-7-7-7---5/10-10-10-10-10-10--|
D|--x----x----x---x--x-x-x-x-x-x-x---x-x--x--x--x--x--x---|
A|--12---12---7---3- 3/5-5-5-5-5-5---3/8--8--8--8--8--8---|
D|--------------------------------------------------------|


verse kinda thaner

E|-------------------------------------|
B|--5---5--5--5--7--7--7--10-----------|
G|--5---5--5--5--7--7--7--8------------|
D|--3---3--3--3--5--5--5--8---8-8-8--5-|
A|----------------------------8-8-8--5-|
D|----------------------------8-8-8--5-|

E|-------------------------------------|
B|--5---5--5--5--7--7--7--10-----------|
G|--5---5--5--5--7--7--7--8------------|
D|--3---3--3--3--5--5--5--8---8-8-8--5-|
A|----------------------------8-8-8--5-|
D|----------------------------8-8-8--5-|

E|----------------------------------------------------------------------|
B|----------------------------------------------------------------------|
G|--5---5--5--5--7--7--7--10------------12/14-14-14--9-9-9/10-10-10-----|
D|--5---5--5--5--7--7--7--10--8-8-8-5---x--x--x--x---x-x-x-x--x--x------|
A|--3---3--3--3--5--5--5--8---8-8-8-5---10/12-12-12--7-7-7/8--8--8------|
D|----------------------------8-8-8-5-----------------------------------|


pretty part?

E|-----------------------------------------------------------|
B|-----------------------------------------------------------|
G|--5------------------------------2-------------------------|
D|--5------------------------------2-------------------------|
A|--3------------------------------0-------------------------|
D|-----------------------------------------------------------|
        hung from a wrecking ball   to view a fashion show

E|-----------------------------------------------------------|
B|-----------------------------------------------------------|
G|-----------------------------------------------------------|
D|--0------------------------------0-------------------------|
A|--0------------------------------0-------------------------|
D|--0------------------------------0-------------------------|
        I think you know me well     I think you know me well


Solo  ..... if u dont want it to sound like shit, then dont up and down pic

E|----------------------------------------------|
B|--10--10--------------------------------------|
G|----------12-12-10-10-9-9-10-10-9-9-10--------|
D|---------------------------------------12-----|
A|----------------------------------------------|
D|----------------------------------------------|

E|----------------------------------------------|
B|--10--10--------------------------------------|
G|----------12-12-10-10-9-9-10-10-9-9-10--------|
D|---------------------------------------12-----|
A|----------------------------------------------|
D|----------------------------------------------|

E|----------------------------------------------|
B|--10--10--------------------------------------|
G|----------12-12-10-10-9-9-10-10-9-9-10--------|
D|---------------------------------------12-----|
A|----------------------------------------------|
D|----------------------------------------------|

E|----------------------------------------------|
B|--10--10--------10-10-11-11-10-10-------------|
G|----------12-12-------------------12-12-10----|
D|----------------------------------------------|
A|----------------------------------------------|
D|----------------------------------------------|

E|----------------------------------------------|
B|--10--10--------10-10-11-11-10-10-------------|
G|----------12-12-------------------12-12-10----|
D|----------------------------------------------|
A|----------------------------------------------|
D|----------------------------------------------|

E|----------------------------------------------|
B|--10--10--------------------------------------|
G|----------12-12-10-10-9-9-10-10-9-9-10--------|
D|---------------------------------------12-----|
A|----------------------------------------------|
D|----------------------------------------------|

E|----------------------------------------------|
B|--10--10--------------------------------------|
G|----------12-12-10-10-9-9-10-10-9-9-10--------|
D|---------------------------------------12-----|
A|----------------------------------------------|
D|----------------------------------------------|


..I dont have names for the parts anymore...

E|-----------------------------------|
B|-----------------------------------|
G|--7--7-7-7-7-7-7-7-7---10-10-10-7--|
D|--x--x-x-x-x-x-x-x-x---x--x--x--x--|
A|--5--5-5-5-5-5-5-5-5---8--8--8--5--|
D|-----------------------------------|

E|-----------------------------------|
B|-----------------------------------|
G|--9--9-9-9-9-9-9-9-9---10-10-10-12-|
D|--x--x-x-x-x-x-x-x-x---x--x--x--x--|
A|--7--7-7-7-7-7-7-7-7---8--8--8--10-|
D|-----------------------------------|

E|-----------------------------------|
B|-----------------------------------|
G|--7--7-7-7-7-7-7-7-7---10-10-10-7--|
D|--x--x-x-x-x-x-x-x-x---x--x--x--x--|
A|--5--5-5-5-5-5-5-5-5---8--8--8--5--|
D|-----------------------------------|

E|-----------------------------------|
B|-----------------------------------|
G|--9--9-9-9-9-9-9-9-9---12-12-12-14-|
D|--x--x-x-x-x-x-x-x-x---x--x--x--x--|
A|--7--7-7-7-7-7-7-7-7---10-10-10-12-|
D|-----------------------------------|

E|-----------------------------------|
B|-----------------------------------|
G|--7--7-7-7-7-7-7-7-7---10-10-10-7--|
D|--x--x-x-x-x-x-x-x-x---x--x--x--x--|
A|--5--5-5-5-5-5-5-5-5---8--8--8--5--|
D|-----------------------------------|

E|-----------------------------------|
B|-----------------------------------|
G|--9--9-9-9-9-9-9-9-9-9-9-9-9-------|
D|--x--x-x-x-x-x-x-x-x-x-x-x-x-------|
A|--7--7-7-7-7-7-7-7-7-7-7-7-7-------|
D|-----------------------------------|

E|-----------------------------------|
B|----3---3---3---3---5---5-10~~~~~~-|
G|--6---6---6---6---8---8---10~~~~~~-|
D|-----------------------------------|
A|-----------------------------------|
D|-----------------------------------|

E|--5--5--5-5-----------------------|
B|--5--5--5-5--6-6-5-5-6-6-5-5-6-5--|
G|-------------5-5-5-5-5-5-5-5-5-5--|
D|----------------------------------|
A|----------------------------------|
D|----------------------------------|
          . .

E|-----------------------------------------------|
B|-----------------------------------------------|
G|--5/7-7-7-7-7-7--5/7-7-7-7-7-7---14--10--9--5--|
D|--x-x-x-x-x-x-x--x-x-x-x-x-x-x---x---x---x--x--|
A|--3/5-5-5-5-5-5--3/5-5-5-5-5-5---12--8---7--3--|
D|-----------------------------------------------|

E|----------------------------------------------------------|
B|----------------------------------------------------------|
G|--5/7-7-7-7-7-7--5--7--10--7----14---10---15--14--12--10--|
D|--x-x-x-x-x-x-x--x--x--x---x----x----x----x---x---x---x---|
A|--3/5-5-5-5-5-5--3--5--8---5----12---8----13--12--10--8---|
D|----------------------------------------------------------|

E|-----------------------------------------------|
B|-----------------------------------------------|
G|--5/7-7-7-7-7-7--5/7-7-7-7-7-7---14--10--9--5--|
D|--x-x-x-x-x-x-x--x-x-x-x-x-x-x---x---x---x--x--|
A|--3/5-5-5-5-5-5--3/5-5-5-5-5-5---12--8---7--3--|
D|-----------------------------------------------|

E|---------------------------------------|
B|---------------------------------------|
G|--5/7-7-7-7-7-7---5/10-10-10-10-10-10--|
D|--x-x-x-x-x-x-x---x-x--x--x--x--x--x---|
A|--3/5-5-5-5-5-5---3/8--8--8--8--8--8---|
D|---------------------------------------|


Outro
E|--------------------------------------------------------------|
B|--------------------------------------------------------------|
G|--------------------------------------------------------------|
D|----------------------------0------------------------------0--|
A|--0-3-4-5-0-3-4-5-0-3-4-5-0-0------------------------------0--|
D|----------------------------0----0-3-5-6-0-3-5-6-0-3-5-6-0-0--|

E|--------------------------------------------------------------|
B|--------------------------------------------------------------|
G|--------------------------------------------------------------|
D|----------------------------0----------------------------0----|
A|----------------------------0----------------------------0----|
D|--0-3-5-6-0-3-5-6-0-3-5-6-0-0----0-3-5-6-0-3-5-6-0-3-5-6-0----|

E|------------------------------------|
B|------------------------------------|
G|------------------------------------|
D|--6-0-5-0----0-6-0-5-3~~~~~~~~~~~0--|
A|--6-0-5-0----0-6-0-5-3~~~~~~~~~~~0--|
D|--6-0-5-0----0-6-0-5-3~~~~~~~~~~~0--|
                                   .
                                   OH!


friggin a that took forever.. yeah so thats it..go ahead and send me hate mail if you 
to
comments
print report bad tab
9 comments total. Showing first comments.
0 reply
Ruroino wrote on October 14 2006, 07:28 pm

one thing that helps of you dont have names for parts, is to simply put the first bit of lyrics and then the riff.
for that part you didnt know what to call--coming out of the solo--..you could do:

"I've been jumping over buldings..."
E|-----------------------------------|
B|-----------------------------------|
G|--7--7-7-7-7-7-7-7-7---10-10-10-7--|
D|--x--x-x-x-x-x-x-x-x---x--x--x--x--|
A|--5--5-5-5-5-5-5-5-5---8--8--8--5--|
D|-----------------------------------| *im not posting all the riffs, like i said its an example*
That helps alot. Atleast in my opinion, it helps to know where you are in relation to the song. So yeah.
Great tab.
Imma give it a shot in a while.
Could you please put up The Greatest Actor Alive?
Thanks.

0 reply
offbeat wrote on November 28 2006, 05:33 pm

it seems decent, the verse is incredibly hard to follow, probably just me

0 reply
screamokid wrote on November 29 2006, 05:31 pm

no the verse is hard to follow

instead of
E|-------------------------------------|
B|--5---5--5--5--7--7--7--10-----------|
G|--5---5--5--5--7--7--7--8------------|
D|--3---3--3--3--5--5--5--8---8-8-8--5-|
A|----------------------------8-8-8--5-|
D|----------------------------8-8-8--5-|

change it to

E|--------------------------------------|
B|--------------------------------------|
G|--5---5--5--5--7--7--7--10------------|
D|--5---5--5--5--7--7--7--10---8-8-8--5-|
A|--3---3--3--3--5--5--5--8----8-8-8--5-|
D|-----------------------------8-8-8--5-|

good job on the tab otherwise
5*

I want to post or [tab]
guest
You may want to rate the tab now too:
select rating
Please do not post tabs as comments. Select "correction" instead!