Oops, an error
Loading. Please wait.

The Seduction Bass Tab

version 1
version 1

Whole song

Interactive

2,819 views 1 this week
2 commentsread comments
1 2 3 4 5
please rate
add to favorites
launch autoscroll
font size
0
reset
guitar tuner
Autoscroll
slow
fast
+/-
esc
set tempo
stop
Help us to improve Ultimate-Guitar.com Take our survey!
×
Author
Difficulty
Tuning
Seney 384
intermediate
D A D G B E
INTRO
G|------------------------|
D|------------------------|
A|--------3--3\-----------|
D|-3-3-3-x----------------|

VERSE Pt. 1
G|----------------------|
D|---------3------------|
A|-3-3-555---1-1-113----|
D|----------------------|x3

Verse Pt. 2
G|----------------------------------|
D|----------------------------------|
A|----------------------------------|
D|-3-3-333-5-5-5-555----------------|x1

Verse Pt. 1 x3
Verse Pt. 2 x1

Chorus 1
G|--------------------------------|
D|--------------------------------|
A|--------------------------------|
D|-3--0--10h11h12--0--6~----------|x3

Post Chorus
G|--------------------------------|
D|--------------------------------|
A|--------------------------------|
D|-60-50--050-53------------------|x1

Chorus 1 x3
Post Chorus x1

First Breakdown
G|-------------------------|
D|-------------------------|
A|-------------------------|
D|-0--0-0---0--------------|

Post Chorus x1

Second Breakdown
G|----------------------------------------------------------|
D|------------------------------------3---------------------|
A|----3450-3450-345------3450-3450-345------3450-3450-345---|
D|-0-0-------------3--0-0----------------0-0-------------3--|x1

Post Chorus x1 

BUT END OF IT PLAY D|-333-| GO RIGHT INTO CHORUS 2

Chorus 2
D|----------------------------------|
D|----------------------------------|
A|----------------------------------|
D|-8-88-88-5-55-55-0-00-00-3-33-33--|x4

Verse pt.1 x3
Verse Pt. 2 x1
Chorus 1 x3
Post Chorus x1
Chorus 1 x3 

Third Breakdown
G|----------------------------------|
D|----------------------------------|
A|----------------3-----------------|
D|-6050-05050-0345------------------|x8 but last time dont play A |-3-|

Chorus 2 x4
Verse Pt. 1 x3 
Verse Pt. 2 x1

Fourth  Breakdown
G|--------------------------------------------------------------|
D|-----------------------------3--20----------------------------|
A|------------------------------3-------------5--------5---5-55-|
D|-8~-5~-0~-0~-8-8-88-88-5-5--5--0----0-0--303-3--0-0----3------|x1

G|---------------------------------------------------|
D|-----------------3--20---------------------0-------|
A|------------------3-----------5--------5--5--------|
D|-8-8-88-88-5-5--5--0---0-0-353-3--0-0---35---------|x1

Interlude
G|----------------------------------------|
D|----------------------------------------|
A|-1-1111111111111111-3-3333333333333333--|
D|----------------------------------------|x3    

G|----------------------------------|
D|----------------------------------|
A|-00000000000000000000000000000000-|
D|----------------------------------|x1

G|-----------------------------------------|
D|-----------------------------------------|
A|-----------------------------------------|
D|-0000-000--3333-333--8888-888--5555-555--|x3    

G|-------------------------|
D|-------------------------|
A|-------------------------|
D|-0000-000--3333-333--0~--|x1

Outro
G|-------|
D|-------|
A|-------|
D|-6~-3~-|

G|--------------------|
D|--------------------|
A|--------------------|
D|-0.-03560-3560-3563-|x3

G|-----------------------|
D|-----------------------|
A|-----------------------|
D|-0.-6050-05053--0.-----|x1
Suggest correction new What's this?
You can suggest a correction to this tab. Community and Mods will review your correction and vote to approve or reject it.
comments
We did not receive enough feedback on this tab! Please rate:
print report bad tab
1 2 3 4 5
2 comments total.
+2 reply
JLanders09 523 wrote on April 14 2008, 04:23 pm

the bridge is a little messed up where the guitars ring. the bass plays this:

G|------------------------------------------------------------------|
D|---7-7--------------------------------7-7-------------------------|
A|-------10-10-8-8-7-7-8-8-7-7-8------------10-10-8-8-7-7-8-8-7-7-8-|
D|-8~----------------------------12---5~----------------------------|

G|-----------------------------------------------------------------|
D|----7-7------------------------------7-7-------------------------|
A|-------10-10-8-8-7-7-8-8-7-7-8-----------10-10-8-8-7-7-8-8-7-7-8-|
D|-0~----------------------------12--0~----------------------------|

+1 reply
Seney 384 wrote on June 7 2008, 09:38 am

Yes! Thank you! Honestly, I knew that part was in there but i couldn't figure it out so I left it out.

guest
You may want to rate the tab now too:
select rating
Please do not post tabs as comments. Select "correction" instead!