Oops, an error
Loading. Please wait.

Walls Have Teeth Bass Tab

version 2
version 2

Whole song

1,694 views 1 this week
2 commentsread comments
1 2 3 4 5
please rate
add to favorites
launch autoscroll
font size
0
reset
guitar tuner
Autoscroll
slow
fast
+/-
esc
set tempo
stop
Help us to improve Ultimate-Guitar.com Take our survey!
×
Author
Difficulty
Tuning
intermediate
D A D G B E
Artist: He is Legend
Song: The Walls Have Teeth
Tabbed by: Dan Cooper

Best band in the world!

Intro/chorus

G|-------------------------|------------------------|
D|-------------------------|------------------------|
A|----------200---0---020--|----------200---0---025-|
D|-2202-0202---3/5-3/5---5-|-2202-0202---3/5-3/5----|

Verse

G|----| |--------------------------|--------------------------|
D|----| |--------------------------|--------------------------|
A|----| |--------------------------|-------------333333333333-|
D|-002| |-2-22225-55557-77775-5555-|-2-22220-0000-------------|

Chorus alteration
                                     "alert the press!"
G|-------------------------|------------------------|
D|-------------------------|------------------------|
A|----------200---0---020--|----------200---0---023-|
D|-2202-0202---3/5-3/5---5-|-2202-0202---3/5-3/5----|

Bridge

G|-----------------------------------------------------|
D|-----------------------------------------------------|
A|-33333333333333332222222222222222--2~----------------|
D|---------------------------------5~--2222222222222222|

Breakdown

G|-----|----|----|
D|-----|----|----|
A|-----|----|----|
D|-032-|-20-|-03-|

Ending

G|---------------------|
D|-------7/14----------|
A|---2~-------5/7-5/7~-|
D|-5~--0~--------------|

Order:
Intro/chorus X3
Verse X2
Intro/chorus x2
Verse X2
Intro/chorus x2
Chorus alteration x1
Bridge x2
Breakdown X8
Ending X1

Enjoy and God Bless!
Suggest correction
Give kudos to tab author, rate the tab!
1 2 3 4 5
comments
print report bad tab
2 comments total.
0 reply
Nintendo_zombie 10 wrote on April 20 2008, 02:37 pm

A|----| |--------------------------|-------------333333333333-|
D|-002| |-2-22225-55557-77775-5555-|-2-22220-0000-------------|

It personally sounds better to me if you play 2-22224-44447-77775-5555
But that's just me, I could be wrong myself.

Still an awesome tab, love this song, love the band!

0 reply
G-SUS FREAK 10 wrote on August 30 2009, 03:10 am

G|-------------------------------|------------------------------|
D|-------------------------------|------------------------------|
A|------------200---0---0---020--|------------200---0---0---025-|
D|-2202-020205---3/5-3/5-3/5---5-|-2202-020205---3/5-3/5-3/5----|

Good job all in all though

guest
You may want to rate the tab now too:
select rating
Wanna post a correction for this tab? Suggest correction