Oops, an error
Loading. Please wait.

All About Us chords

version 6
version 6
16,980 views 33 this week
1 commentread comment
1 2 3 4 5
x 8
add to favorites
×
Save as Personal and add changes to this tab that will be seen only by you. Learn more ›
×
You can save this tab as Personal to edit and correct it or add notes. All changes will be seen only by you. Learn more »
launch autoscroll
font size
0
reset
transpose
0
reset
simplify chords
display chords
guitar tuner
edit
Autoscroll
slow
fast
+/-
esc
set tempo
stop
Author
Difficulty
Strumming
There is no strumming pattern for this song yet. and get +5 IQ
[Intro] 
    G                                                          D
e|---------------3---------------3----------------2-------------------2--|
B|-------3---------------3----------------3-----------------3------------|
G|-----------------------------------------------------------------------|
D|-----------------------------------0---------0-------0---------0-------|
A|-----------------------------------------------------------------------|
E|---3-------3-------3-------3-------------------------------------------|
   
e|---------------0------------------------------------0-----------------0--|
B|-------3---------------3----------3---------3----------------3-----------|
G|-------------------------------------------------------------------------|
D|----------------------------0h2--------0--------0-------0--------0-------|
A|---2-------2-------3-----------------------------------------------------|
E|-------------------------------------------------------------------------|
              
Take my hand, I'll teach you to dance                
I'll spin you around, won't let you fall down                     
Would you let me lead, you can step on my feet
Give it a try it'll be alright

[lightly strum]
Em7
The room's hush, hush
G
And now's our moment
Cadd9
Take it in, feel it all, and hold it
Em7              Cadd9
Eyes on you, eyes on me
G   (strum down palm muting slowly releasing getting louder then pause)               
We're doing this right

[Chorus]
[loud strum]
G                       
Cause lovers dance when they're feeling in love
D
Spotlight shinning, it's all about us
Cadd9             D
It's a...ll about u.....s.
G
And every heart in the room will melt
D
This is a feeling I've never felt but
Cadd9              D
It's a....ll about us

[pick same as intro x2]
Suddenly, I'm feeling brave     
Don't know what's got into me
Why I feel this way
Can we dance real slow
Can I hold you, can i hold you close

[lightly strum]
Em7
The room's hush, hush
G
And now's our moment
Cadd9
Take it, in feel it all and hold in
Em7              Cadd9
Eyes on you, eyes on me
G   [strum down palm muting slowly releasing getting louder then pause] 
We're doing this right

[strum]
G                       
Cause lovers dance when they're feeling in love
D
Spotlight shinning, it's all about us
Cadd9             D
It's a...ll about u.....s
G
And every heart in the room will melt
D
This is a feeling I've never felt but
Cadd9             D
It's a...ll about us

[palm muting]
Em7
Do you hear that love
Cadd9
They're playing our song
G
Do you think we're ready
Cadd9
Oh I'm really feeling it
Em7
Do you hear that love
G
Do you hear that love

[lightly strumming]
Em7
Do you hear that love
Cadd9
They're playing our song
G
Do you think we're ready yet
Cadd9
Love I'm really feeling it
Em7
Do you hear that love
G
Do you hear that love

[strum loud]
Em7
Do you hear that love
Cadd9
They're playing our song
G
Do you think we're ready
Cadd9
Oh I'm really feeling it
Em7                   Cadd9
Do you hear that love
G
Do you hear that love

(dont play but strum once at the first G,D and knock guitar x2 after G and X2 after D)
G
Lovers dance when they're feeling in love
D                       
Spotlight shinning, it's all about us
G
It's all about us
D (palm muting strumming down releasing and getting louder each strum)
It's a.....ll

[strum loud]
G
Every heart in the room will melt
D                                  Cadd9
This is a feeling I've never felt but
                       D
It's a...ll about us
G
Cause lovers dance when they're feeling in love
D
Spotlight shinning, it's all about us
Cadd9    D
It's a...ll, about u.....s
  (hey-ey hey)
G
And every heart in the room will melt
D                                 Cadd9
This is a feeling I've never felt but
Cadd9
It's a...ll
D (ending with one strum fading out)
It's all about us

            
            
Suggest correction
Creating personal tab
Creating personal tab
You can edit any tab online and save it as your Personal.

You can edit, replace or remove any tab part or add personal notes – all changes will be seen only by you.

Personal tabs can be accessed anytime from any device, even offline.
Learn more »
comments
print report bad tab
1 comment total.
0 reply
ionanicole 10 Nov 23, 2014 08:04 AM

I think that the second part of the intro goes like this:

e---------------0------------------------------------2-----------------2
b-------3---------------3----------3---------3----------------3-----------|
g-------------------------------------------------------------------------|
d----------------------------0h2--------0--------0-------0--------0-------|
a---2-------2-------3-----------------------------------------------------|
e-------------------------------------------------------------------------|

guest
You may want to rate the tab now too:
select rating
Wanna post a correction for this tab? Suggest correction