Oops, an error
Loading. Please wait.

Forever And Ever Tab

917 views 6 this week
1 commentread comment
1 2 3 4 5
2 more votes to show rating
add to favorites
launch autoscroll
font size
0
reset
how to read this tab
guitar tuner
Autoscroll
slow
fast
+/-
esc
set tempo
stop
Help us to improve Ultimate-Guitar.com Take our survey!
×
Difficulty
novice
I found the tab myself and I'm sure it's accurate :D (not 100% sure though :p) but enjoy :)



Basically the chords are D, G, B and A.

Intro and Verse (0:03 - 0:38)

e|----------------------------------------------------------|
B|----3---------3----------3-----------3--------------------|
G|---2-2-------2-2--------2-2---------2-2-------------------|
D|--0-------------------------------------------------------|
A|-----------------------1-----------0----------------------|
E|------------3---------------------------------------------|

(*)
I gotta tell you how this feels now....

e|----------------------------------------------------------|
B|----------------------------------------------------------|
G|---4---4---4---4------------------------------------------|
D|---4---4---4---4-------6--6--6--6-------------------------|
A|---2---2---2---2-------6--6--6--6-------------------------|
E|-----------------------5--5--5--5-------------------------|

e|-----------------------------------------------------------|
B|-----------------------------------------------------------|
G|-----------------------------------------------------------|
D|---5--5--5--5--5--5--5-------------------------------------|
A|---5--5--5--5--5--5--5-------------------------------------|
E|---3--3--3--3--3--3--3-------------------------------------|


Chorus

      G             D            A

e|----3-------------2----------------------------------|
B|----3-------------3------------2---------------------|
G|------------------2------------2---------------------|            (4x)
D|-------------------------------2---------------------|
A|----2------------------------------------------------|
E|----3------------------------------------------------|



back to Intro, Verse, and [(*) 2x]

Chorus

Intro

Bridge (2:32 - 2:55)

    B              A            G

e|------------------------------3---------------------|
B|-----------------2------------3---------------------|
G|--4--------------2----------------------------------|
D|--4--------------2----------------------------------|
A|--2---------------------------2---------------------|
E|------------------------------3---------------------|


Verse 2x

(ending) Intro 2x
Suggest correction
Give kudos to tab author, rate the tab!
1 2 3 4 5
comments
print report bad tab
1 comment total.
0 reply
charmiamarsha 10 Apr 26, 2012 09:32 AM

sorry i made a mistake on the B tab, so intro should be like this (:

e|----------------------------------------------------------|
B|----3---------3----------3-----------3--------------------|
G|---2-2-------2-2--------2-2---------2-2-------------------|
D|--0-------------------------------------------------------|
A|-----------------------2-----------0----------------------|
E|------------3---------------------------------------------|

guest
You may want to rate the tab now too:
select rating
Wanna post a correction for this tab? Suggest correction