Oops, an error
Loading. Please wait.

Cannibal Girl bass

570 views 1 this week
2 commentsread comments
1 2 3 4 5
2 more votes to show rating
add to favorites
×
Save as Personal and add changes to this tab that will be seen only by you. Learn more ›
×
You can save this tab as Personal to edit and correct it or add notes. All changes will be seen only by you. Learn more »
launch autoscroll
font size
0
reset
guitar tuner
edit
Autoscroll
slow
fast
+/-
esc
set tempo
stop
Author
This song is pretty easy very fun to play and has a funk/rock feel to it. When
listening to the song the bass line is pretty easy to follow

Key:
/-slide up
R-let note ring
P-Pull

Intro:

g-------------------------------------------------------------------|
d-------------------------------------------------------------------|
a4--42--2-------------2--24---4--42---2----------------02--2---2-4R-|
E--------5--54--45--5-----------4---2---5--054--045--2-------2------|

Verse One:

g--------------------------------------------------------|
d-------------------------------2-------------2----------|
a----2-------------2--------444---22-22222000---22-22222-|
E444---22-22222000--22-22222-----------------------------| (Play Twice)

Hook:

g--------------------------------------------------------------------------|
d--------------------------------------------------------------------------|
a2222-44-44444--------2222-44-44444--------2222-44-44444-------------------|
E-------------55555555-------------22222222--------------55555555-2/4-4P4P-|

Verse Two: Same as Verse One

g--------------------------------------------------------|
d-------------------------------2-------------2----------|
a----2-------------2--------444---22-22222000---22-22222-|
E444---22-22222000--22-22222-----------------------------| (Play Twice)

Hook:

g--------------------------------------------------------------------------|
d--------------------------------------------------------------------------|
a2222-44-44444--------2222-44-44444--------2222-44-44444-------------------|
E-------------55555555-------------22222222--------------55555555-2/4-4P4P-|

Bridge: Same as the Intro

g-------------------------------------------------------------------|
d-------------------------------------------------------------------|
a4--42--2-------------2--24---4--42---2----------------02--2---2-4R-|
E--------5--54--45--5-----------4---2---5--054--045--2-------2------|

Hook:

g--------------------------------------------------------------------------|
d--------------------------------------------------------------------------|
a2222-44-44444--------2222-44-44444--------2222-44-44444-------------------|
E-------------55555555-------------22222222--------------55555555-2/4-4P4P-|

Ending: very similar to the hook but the rhythm is slightly different

g-----------------------------------------------------------------|
d-----------------------------------------------------------------|
a2222-4444---------2222-4444----------2222-4444-------------------|
E---------55555555-----------22222222-----------55555555-2/4-4P4P-|

            
            
Suggest correction
Creating personal tab
Creating personal tab
You can edit any tab online and save it as your Personal.

You can edit, replace or remove any tab part or add personal notes – all changes will be seen only by you.

Personal tabs can be accessed anytime from any device, even offline.
Learn more »
Give kudos to tab author, rate the tab!
1 2 3 4 5
comments
print report bad tab
2 comments total.
0 reply
emil_sej 372 Jan 01, 2013 12:26 PM

The verse should be played an octave higher.

0 reply
emil_sej 372 Jan 01, 2013 12:28 PM

Also the intro.

guest
You may want to rate the tab now too:
select rating
Wanna post a correction for this tab? Suggest correction